Oops, an error
Loading. Please wait.

Bien O Mal Bass

62 views 1 this week
no commentswrite comment
1 2 3 4 5
3 more votes to show rating
add to favorites
×
Save as Personal and add changes to this tab that will be seen only by you. Learn more ›
×
You can save this tab as Personal to edit and correct it or add notes. All changes will be seen only by you. Learn more »
save as personal
new!
launch autoscroll
font size
0
reset
guitar tuner
Autoscroll
slow
fast
+/-
esc
set tempo
stop
Empieza la guitarra sola y a la segunda vez es esto:
Intro
G------------------------------------------------------
D------------------------------------------------------
A-------------------------------5----------------------
E--5--------0--------2---------------------------------

Intro 2
G------------------------------------------------------
D------------------------------------------------------
A-------------------------------5-544------------------
E----5-555----0-000----2-222---------7-----------------

G------------------------------------------------------
D------------------------------------------------------
A-------------------------------5-5447-----------------
E----5-555----0-000----2-222---------------------------
 
Verso
G------------------------------------------------------
D------------------------------------7-----------------
A-------------------------------5-547------------------
E----5-555----0-000----2-222---------------------------

G------------------------------------------------------
D------------------------------------7-----------------
A-------------------------------5-547-5----------------
E----5-555----0-000----2-222---------------------------

Coro(YA NO SE Q ESTA BIEN O MAL...)
G------------------------------------------------------
D------------------------------------------------------
A-------------------------------5-544------------------
E----5-555----0-000----2-222---------7-----------------

G------------------------------------------------------
D------------------------------------------------------
A-------------------------------5-5447-----------------
E----5-555----0-000----2-222---------------------------

Bridge(YO NO SE Q ESTA PASANDO...ETC)
G------------------------------------------------------
D--------------------\14-14-14-14-14-14-14-14----------
A----------7-7-7-7-------------------------------------
E--0-0-0-0---------------------------------------------

La cancion es super facil y en guitarra es lo mismo practicamente 
solo q puestos en acordes!
Suggest correction
Give kudos to tab author, rate the tab!
1 2 3 4 5
comments
print report bad tab
guest
Wanna post a correction for this tab? Suggest correction