Oops, an error
Loading. Please wait.

Criaturas De La Noche Bass

37 views 1 this week
no commentswrite comment
1 2 3 4 5
3 more votes to show rating
add to favorites
launch autoscroll
font size
0
reset
guitar tuner
×
Best way to learn
"Criaturas De La Noche"
Autoscroll
slow
fast
+/-
esc
set tempo
stop
Intro(x2)
G------------------------------------------------------
D-------------1----1-----------------------------------
A---1--------------------------------------------------
E--------1---------------------------------------------

Intro 2(2x)
G-----------------------0-3------0-3-------------------
D-----0-3----------0--1-----0--1-----0-----------------
A---1-----0----0-3-------------------------------------
E------------1-----------------------------------------

Intro 3(2x)
G------------------------------------------------------
D-----10----10----10----10----8----8----8----8---------
A---8-----8-----8-----8-----6----6----6----6-----------
E------------------------------------------------------

Verso(Caido el sol, me voy a levantar...)(4x)
G-----------------------0-3------0-3-------------------
D-----0-3----------0--1-----0--1-----0-----------------
A---1-----0----0-3-------------------------------------
E------------1-----------------------------------------

Pre-Coro(Me convertido en algo sobrenatural...)(2x)
G------------------------------------------------------
D-----10----10----10----10----8----8----8----8---------
A---8-----8-----8-----8-----6----6----6----6-----------
E------------------------------------------------------

Coro(Critatura de la noche...)(2x)
G-----------------------0-3------0-3-------------------
D-----0-3----------0--1-----0--1-----0-----------------
A---1-----0----0-3-------------------------------------
E------------1-----------------------------------------

Verso
Pre-Coro
Coro(4x)
Solo(se toca lo mismo que en el verso)(2x)
Coro(resto de la cancion)
Suggest correction
Give kudos to tab author, rate the tab!
1 2 3 4 5
comments
print report bad tab
guest
You may want to rate the tab now too:
select rating
Wanna post a correction for this tab? Suggest correction