Oops, an error
Loading. Please wait.

No Te Entiendo Bass Tab

27 views 1 this week
no commentswrite comment
1 2 3 4 5
3 more votes to show rating
add to favorites
launch autoscroll
font size
0
reset
guitar tuner
×
Best way to learn
"No Te Entiendo"
Autoscroll
slow
fast
+/-
esc
set tempo
stop
Intro(x4)
G------------------------------------------------------
D-----5------------------------------------------------
A---6------5----6----3---------------------------------
E--------6----8----4-----------------------------------


Verso(Si estoy contigo, me pides tiempo...)
G------------------------------------------------------
D------------------------------------------------------
A----6---6---------------------------------------------
E----------6---6-8---8-4-------------------------------


Coro(Habeces no te entiendo.....)
G------------------------------------------------------
D-----5------------------------------------------------
A---6------5----6----3---------------------------------
E--------6----8----4-----------------------------------


Verso(Voy a buscarte, no estás vestida...)
G------------------------------------------------------
D------------------------------------------------------
A----6---6---------------------------------------------
E----------6---6-8---8-4-------------------------------

Coro(x8)
Verso(x8)
Coro(resto de la canción)
Suggest correction
Give kudos to tab author, rate the tab!
1 2 3 4 5
comments
print report bad tab
guest
You may want to rate the tab now too:
select rating
Wanna post a correction for this tab? Suggest correction