Oops, an error
Loading. Please wait.

Pudrete Chords

4 views 1 this week
no commentswrite comment
1 2 3 4 5
3 more votes to show rating
add to favorites
launch autoscroll
font size
0
reset
transpose
0
reset
display chords
guitar tuner
Autoscroll
slow
fast
+/-
esc
set tempo
stop
Help us to improve Ultimate-Guitar.com Take our survey!
×
D#m            A#
Quiza no saves como me siento
 G#                     A#
tu lo sabrias si al gun dia te miento
 D#m            A#
ayer te fuiste con aquel PendeJo
 G#                     A#
y yo creyendote aquel triste cuento
 G#                 A#
que querias tiempo para analizar
 G#                     A#
te fuiste con ese para nunca regresar.

Chorus:
 D#m      G#
Muerete  pudrete
        A#
que te coman los gusanos
 D#m      G#
Muerete  pudrete
        A#
que te coman los gusanos.
 D#m               A#
Te cres muy lista por que te fuiste
 G#                    A#
estas contenta con su carro convertible
 D#m           A#
pero no sabes lo que yo se
 G#                       A#
que a ese marica tambien le gusta Cojer
 G#                A#
esta contigo solo para aparentar
 G#                  A#
y tu con el por que vive en la capital.

Chorus:
 D#m      G#
Muerete  pudrete
        A#
que te coman los gusanos
 D#m      G#
Muerete  pudrete
        A#
que te coman los gusanos.

Solo:
e-7---------------------------------------------------
B---9-10-9---10-9---10-9---10-9---10-9---10-9---------
G----------9-----10-----10-----10-----10-----10-------
D-----------------------------------------------------
A-----------------------------------------------------
E-----------------------------------------------------

e-----------------------------------------------------
B-11-10---11-10 --11-10---11-10---11-10---------------
G------11------11------11------11------11-------------
D-----------------------------------------------------
A-----------------------------------------------------
E-----------------------------------------------------


e-----------------------------------------------------
B-12-12-12-11-11-11-10-10-10-11-11-11-9--12-11-10-9---
G-----------------------------------------------------
D-----------------------------------------------------
A-----------------------------------------------------
E-----------------------------------------------------

  G#                   A#
Y ahora termino ya no quiero hablarte mas
    G#               A#
y antes de hirme te quiero desear.

Chorus:
 D#m      G#
Muerete  pudrete
        A#
que te coman los gusanos
 D#m      G#
Muerete  pudrete
        A#
que te coman los gusanos.

****************************************************************
alguna duda a mi correo! me lo hacen saber
juanjose-225519@
Suggest correction
Give kudos to tab author, rate the tab!
1 2 3 4 5
comments
print report bad tab
guest
You may want to rate the tab now too:
select rating
Wanna post a correction for this tab? Suggest correction