Oops, an error
Loading. Please wait.

Riot bass

55 views 1 this week
no commentswrite comment
1 2 3 4 5
3 more votes to show rating
add to favorites
×
Save as Personal and add changes to this tab that will be seen only by you. Learn more ›
×
You can save this tab as Personal to edit and correct it or add notes. All changes will be seen only by you. Learn more »
launch autoscroll
font size
0
reset
guitar tuner
edit
Autoscroll
slow
fast
+/-
esc
set tempo
stop
Skarlett Riot - Riot (Tear Me Down - 2013)

[Intro]

Gb|---------------|---------------|---------------|---------------|
Db|---------------|---------------|---------------|---------------|
Ab|-3g5--5--5-5-5-|-3g5--5--5-5-5-|-3g5--5--5-5-5-|-3g5--5--5-5-5-|
Eb|---------------|---------------|---------------|---------------|

Gb|---------------|-3---3---3---3---|--------------|-----------------|
Db|---------------|-----------------|--------------|-----------------|
Ab|-1---1---1-1-1-|---1---1---1---1-|-3---3--3-3-3-|-3-0-3-0-3-0-3-4-|
Eb|---------------|-----------------|--------------|-----------------|

Gb|---------------|---------------|---------------|---------------|
Db|---------------|---------------|---------------|---------------|
Ab|-3g5--5--5-5-5-|-3g5--5--5-5-5-|-3g5--5--5-5-5-|-3g5--5--5-5-5-|
Eb|---------------|---------------|---------------|---------------|

Gb|---------------|-3---3---3---3---|--------------|-----------------|
Db|---------------|-----------------|--------------|-----------------|
Ab|-1---1---1-1-1-|---1---1---1---1-|-3---3--3-3-3-|-3-0-3-0-3-0-3-4-|
Eb|---------------|-----------------|--------------|-----------------|

Gb|---------------|
Db|---------------|
Ab|-5-------------|
Eb|---------------|


[Verse]

Gb|-----------------|-----------------|-----------------|-----------------|
Db|-------------3---|-------------3---|-------------3---|-------------3---|
Ab|-5---3-5-3-5---5-|-3-5-3-5-3-5---3-|-5---3-5-3-5---5-|-3-5-3-5-3-5---3-|
Eb|-----------------|-----------------|-----------------|-----------------|

Gb|-----------------|-----------------|-----------------|-----------------|
Db|-----------------|-----------------|-----------------|-----------------|
Ab|-1---1---1-1-1-1-|---1-1---1-1-1-1-|-----------------|-----------------|
Eb|-----------------|-----------------|-5---5---5-5-5-5-|-3---3---3-3-3-3-|

Gb|-----------------|-----------------|-----------------|-----------------|
Db|-------------3---|-------------3---|-------------3---|-------------3---|
Ab|-5---3-5-3-5---5-|-3-5-3-5-3-5---3-|-5---3-5-3-5---5-|-3-5-3-5-3-5---3-|
Eb|-----------------|-----------------|-----------------|-----------------|

Gb|-----------------|-----------------|-----------------|-----------------|
Db|-----------------|-----------------|-----------------|-----------------|
Ab|-1---1---1-1-1-1-|---1-1---1-1-1-1-|-----------------|-3---3---3---3---|
Eb|-----------------|-----------------|-5---5---5-5-5-5-|-----------------|

Gb|-----------------|-----------------|
Db|-----------------|-----------------|
Ab|-5-5-5-3-3-3-8-8-|-8-7-7-7-3-------|
Eb|-----------------|-----------------|


[Chorus]

Gb|-----------------|-----------------|-----------------|-----------------|
Db|-----------------|-----------------|-----------------|-----------------|
Ab|-5---5---5---5---|-5---5---5---5---|-5---5---5---5---|-5---5---5---5---|
Eb|-----------------|-----------------|-----------------|-----------------|

Gb|---------------3-|---3---3---3-----|-----------------|-----------------|
Db|-----------------|-----------------|-----------------|-----------------|
Ab|-1---1---1-1-1---|-1---1---1-----1-|-----------------|-----------------|
Eb|-----------------|-----------------|-3---3---3-3-3-3-|-5---5---5-5-5-5-|

Gb|-----------------|-----------------|-----------------|-----------------|
Db|-----------------|-----------------|-----------------|-----------------|
Ab|-5---5---5---5---|-5---5---5---5---|-5---5---5---5---|-5---5---5---5---|
Eb|-----------------|-----------------|-----------------|-----------------|

Gb|---------------3-|---3---3---3-----|-----------------|-----------------|
Db|-----------------|-----------------|-----------------|-----------------|
Ab|-1---1---1-1-1---|-1---1---1-----1-|-----------------|-----------------|
Eb|-----------------|-----------------|-3---3---3-3-3-3-|-5---5---5-5-5-5-|


[Verse]

Gb|-----------------|-----------------|-----------------|-----------------|
Db|-------------3---|-------------3---|-------------3---|-------------3---|
Ab|-5---3-5-3-5---5-|-3-5-3-5-3-5---3-|-5---3-5-3-5---5-|-3-5-3-5-3-5---3-|
Eb|-----------------|-----------------|-----------------|-----------------|

Gb|-----------------|-----------------|-----------------|-----------------|
Db|-----------------|-----------------|-----------------|-----------------|
Ab|-1---1---1-1-1-1-|---1-1---1-1-1-1-|-----------------|-----------------|
Eb|-----------------|-----------------|-5---5---5-5-5-5-|-3---3---3-3-3-3-|

Gb|-----------------|-----------------|-----------------|-----------------|
Db|-------------3---|-------------3---|-------------3---|-------------3---|
Ab|-5---3-5-3-5---5-|-3-5-3-5-3-5---3-|-5---3-5-3-5---5-|-3-5-3-5-3-5---3-|
Eb|-----------------|-----------------|-----------------|-----------------|

Gb|-----------------|-----------------|-----------------|-----------------|
Db|-----------------|-----------------|-----------------|-----------------|
Ab|-1---1---1-1-1-1-|---1-1---1-1-1-1-|-----------------|-3---3---3---3---|
Eb|-----------------|-----------------|-5---5---5-5-5-5-|-----------------|

Gb|---------------|
Db|---------------|
Ab|-5-------------|
Eb|---------------|


[Chorus]

Gb|-----------------|-----------------|-----------------|-----------------|
Db|-----------------|-----------------|-----------------|-----------------|
Ab|-5---5---5---5---|-5---5---5---5---|-5---5---5---5---|-5---5---5---5---|
Eb|-----------------|-----------------|-----------------|-----------------|

Gb|---------------3-|---3---3---3-----|-----------------|-----------------|
Db|-----------------|-----------------|-----------------|-----------------|
Ab|-1---1---1-1-1---|-1---1---1-----1-|-----------------|-----------------|
Eb|-----------------|-----------------|-3---3---3-3-3-3-|-5---5---5-5-5-5-|

Gb|-----------------|-----------------|-----------------|-----------------|
Db|-----------------|-----------------|-----------------|-----------------|
Ab|-5---5---5---5---|-5---5---5---5---|-5---5---5---5---|-5---5---5---5---|
Eb|-----------------|-----------------|-----------------|-----------------|

Gb|---------------3-|---3---3---3-----|-----------------|-----------------|
Db|-----------------|-----------------|-----------------|-----------------|
Ab|-1---1---1-1-1---|-1---1---1-----1-|-----------------|-----------------|
Eb|-----------------|-----------------|-3---3---3-3-3-3-|-5---5---5-5-5-5-|


[Bridge]

Gb|---------------|
Db|---------------|
Ab|-5-------------|
Eb|---------------|


[Chorus]

Gb|-----------------|-----------------|-----------------|-----------------|
Db|-----------------|-----------------|-----------------|-----------------|
Ab|-5---5---5---5---|-5---5---5---5---|-5---5---5---5---|-5---5---5---5---|
Eb|-----------------|-----------------|-----------------|-----------------|

Gb|---------------3-|---3---3---3-----|-----------------|-----------------|
Db|-----------------|-----------------|-----------------|-----------------|
Ab|-1---1---1-1-1---|-1---1---1-----1-|-----------------|-----------------|
Eb|-----------------|-----------------|-3---3---3-3-3-3-|-5---5---5-5-5-5-|

Gb|-----------------|-----------------|-----------------|-----------------|
Db|-----------------|-----------------|-----------------|-----------------|
Ab|-5---5---5---5---|-5---5---5---5---|-5---5---5---5---|-5---5---5---5---|
Eb|-----------------|-----------------|-----------------|-----------------|

Gb|---------------3-|---3---3---3-----|-----------------|-----------------|
Db|-----------------|-----------------|-----------------|-----------------|
Ab|-1---1---1-1-1---|-1---1---1-----1-|-----------------|-----------------|
Eb|-----------------|-----------------|-3---3---3-3-3-3-|-5---5---5-5-5-5-|


[Outro]

Gb|-----------------|-----------------|-----------------|-----------------|
Db|-------------3---|-------------3---|-------------3---|-------------3---|
Ab|-5---3-5-3-5---5-|-3-5-3-5-3-5---3-|-5---3-5-3-5---5-|-3-5-3-5-3-5---3-|
Eb|-----------------|-----------------|-----------------|-----------------|

Gb|-----------------|-----------------|-----------------|-----------------|
Db|-------------3---|-------------3---|-------------3---|-------------3---|
Ab|-5---3-5-3-5---5-|-3-5-3-5-3-5---3-|-5---3-5-3-5---5-|-3-5-3-5-3-5---3-|
Eb|-----------------|-----------------|-----------------|-----------------|

Gb|---------------|
Db|---------------|
Ab|-5-------------|
Eb|---------------|



************************************
 
| b  Bend

************************************

            
            
Suggest correction
Creating personal tab
Creating personal tab
You can edit any tab online and save it as your Personal.

You can edit, replace or remove any tab part or add personal notes – all changes will be seen only by you.

Personal tabs can be accessed anytime from any device, even offline.
Learn more »
Give kudos to tab author, rate the tab!
1 2 3 4 5
comments
print report bad tab
guest
You may want to rate the tab now too:
select rating
Wanna post a correction for this tab? Suggest correction