Oops, an error
Loading. Please wait.

Abalorios Tab

47 views 1 this week
no commentswrite comment
1 2 3 4 5
3 more votes to show rating
add to favorites
launch autoscroll
font size
0
reset
how to read this tab
guitar tuner
Autoscroll
slow
fast
+/-
esc
set tempo
stop
Help us to improve Ultimate-Guitar.com Take our survey!
×
Aquí les dejo la transcripcion del recital de skay en GAP Mar del Plata:

Interludio:

E|--------------------------------------------------------|
B|----------------------------------------------5--3-2----|
G|-------2---------------2----------------2-------------4-| x 2
D|---4-4---4~------2-4-4---4~-------2-4-4---4~------------|
A|-------------2-4--------------2-4-----------------------|
E|--------------------------------------------------------|

E|-------------------------------------------------------------|
B|-----(5)---9-10-12-10-9-10---------------------9-------------|
G|--1--(4)-------------------9-7----------9--9-7---9-7---------|
D|--2-------------------------------6-7-9--------------9-7-6-9~|
A|--2----------------------------------------------------------|
E|-------------------------------------------------------------|

E|------------------------|
B|------------------------|
G|------------------------|
D|------6-7-6-------6-----|
A|--5-7-------7-5-7---7~~-|
E|------------------------|

Solo del final

E|--------------------7------------|
B|-------------9-10-9---10-9-------|
G|---------------------------9-7-9~|
D|-------6-7-9---------------------|
A|--7~~----------------------------|
E|---------------------------------|

E|------------------------------------------------|
B|------------------------------------------9-----|
G|-----------------------------------9~-9-7---9-7~|
D|-6-7-9-9-7-6-7-6-------------6-7-9--------------|
A|-----------------7-5~----5-7--------------------|
E|-----------------------7------------------------|

E|----------------------------------------------------|
B|---9-10-12-12~~----10-9-----------9-----------------|
G|------------------------9-7---7-9---9-7-------------|
D|----------------------------9-----------9-9-7-6-7/9-|
A|----------------------------------------------------|
E|----------------------------------------------------|

E|---------------------------------------------------|
B|---------------------------------------------------|
G|---------------------------------------------------|
D|------6-7-6-------6-7-6----------------7-6---------|
A|--5-7-------7-5-7-------7---5-7-7~--7-5-----7-7~---|
E|--------------------------7------------------------|

E|------4~~-----5-4-5-7---------------------------------|
B|----------------------5~----3-------------------------|
G|--2-4--------------------------4-2-1-2-4--------------|
D|-----------------------------------------0-0-0-0-2~---|
A|------------------------------------------------------|
E|------------------------------------------------------|

E|-----------------------------------------------------------------------|
B|------------10-10-9-10-12---------12-14-15~~-15-15-13-12-10-9-10-12----|
G|---9-7-9~-----------------7/9-9~------------------------------------9~-|
D|-----------------------------------------------------------------------|
A|-----------------------------------------------------------------------|
E|-----------------------------------------------------------------------|

E|---------------------------|
B|------9-10-12-10-9---------|
G|--7-9--------------9-7-9~--|
D|---------------------------|
A|---------------------------|
E|---------------------------|

Final: (D - A - E) x4 veces
Suggest correction
Give kudos to tab author, rate the tab!
1 2 3 4 5
comments
print report bad tab
guest
You may want to rate the tab now too:
select rating
Wanna post a correction for this tab? Suggest correction