Oops, an error
Loading. Please wait.

Angeles Caidos Tab

version 2
version 2

Whole song

26 views 1 this week
no commentswrite comment
1 2 3 4 5
3 more votes to show rating
add to favorites
×
Save as Personal and add changes to this tab that will be seen only by you. Learn more ›
×
You can save this tab as Personal to edit and correct it or add notes. All changes will be seen only by you. Learn more »
save as personal
new!
launch autoscroll
font size
0
reset
how to read this tab
guitar tuner
Autoscroll
slow
fast
+/-
esc
set tempo
stop
INTRO:

Base en D

(1º Guitarra)

E|------2---2-3-2-|-----2---3--2--|
B|--------3-------|-------3-------|
G|----2-----------|---2-----------| x2
D|--0-------------|-0-------------|
A|----------------|---------------|
E|----------------|---------------|

(2º Guitarra)
E|----------------|----------2----|
B|-----5------2---|----5--2-----5-|
G|----------------|---------------| x2
D|----------------|---------------|
A|----------------|---------------|
E|----------------|---------------|


(después)

(1º Guitarra)

E|------2---2-3-2-|-----2---3--2--|
B|--------3-------|-------3-------|
G|----2-----------|---2-----------| x2
D|--0-------------|-0-------------|
A|----------------|---------------|
E|----------------|---------------|

(2º Guitarra)
E|--7--------9----|--7------9-----|
B|----------------|-----------8---|
G|----------------|---------------| x2
D|----------------|---------------|
A|----------------|---------------|
E|----------------|---------------|


(FA#5 - SI5 - RE5 / FA#5 - SI5 - Db5) x2


D
Con una mueca de sonrisa
cerrabas la puerta de tu corazón,
secaste las lágrimas,
el pibe que fuiste dejó de jugar


FA#5               SI5             RE5
Sos una sombra que acecha en la oscuridad
FA#5        SI5               Db5
Sos ese miedo que no puede dormir
FA#5            SI5         RE5
Aún así alguien vela por vos
FA#5        SI5               Db5
Aunque no siempre te toque ganar

D
Entras en barrios custodiados
llevabas como escudo
la remera del Che
apretado en el pecho
el rosarito blanco
que la chiqui te dio


FA#5               SI5             RE5
Sos una sombra que acecha en la ciudad
FA#5        SI5               Db5
sos ese miedo que no quiere dormir
FA#5               SI5      RE5
Aun así un ángel vela por vos
FA#5        SI5             Db5
Aunque a veces te toca perder


(Base de solo)

E|----------------|----------------|
B|----------------|-----5----------|
G|-----6---6-7-6--|---6-----7--6---|
D|---7---7--------|-7-----7--------|
A|----------------|----------------|
E|-5--------------|----------------|

Solo:

E|------------------------|-9^10-9------------------|
B|------------------------|--------9----------------|
G|------------------------|----------9-7-6-9--------|
D|------------------------|------------------5-7-7~-|
A|------------------------|-------------------------|
E|------------------------|-------------------------|


E|-----------------------|-------------------------------------------|
B|-----------------------|-10-9-10-(12)-10-9-------------------------|
G|----------------7^9-7~-|-------------------(9)~--------------------|
D|--------6^7-6~---------|-------------------------9-7-6-(9)---------|
A|----5-7----------------|-----------------------------------5-7-7~~-|
E|--7--------------------|-------------------------------------------|


(Después)


Db - Gb - A / Db Gb Ab  x2

    Db      Gb     A     Db    Gb   Ab
E|--------------------|----------------|
B|--------------------|----------------|
G|---6----------------|--6-------------| x2
D|-------6---4-7-6-4--|-------6---4-6--|
A|--------------------|----------------|
E|--------------------|----------------|


(Vuelve a A:)

(1º Guitarra)

E|----------------|------------------|
B|----------------|-----5------------|
G|-----6---6-7-6--|---6-----(7)--6~--|
D|---7---7--------|-7-----7----------|
A|----------------|------------------|
E|-5--------------|------------------|

(2º Guitarra)
E|----------------|--------12--10~--|
B|---------6-7-6--|-----------------|
G|-------7--------|-----------------|
D|----------------|-----------------|
A|----------------|-----------------|
E|----------------|-----------------|


A
Ahí vas, ahí vas
Con tu carrito
Ahí vas...


    Db      Gb     A     Db    Gb   Ab
E|--------------------|----------------|
B|--------------------|----------------|
G|---6----------------|--6-------------| x2
D|-------6---4-7-6-4--|-------6---4-6--|
A|--------------------|----------------|
E|--------------------|----------------|


(luego pasa a B)


    B        E     G      B       E  F#
E|---------------------|----------------|
B|---------------------|----------------|
G|---9-----------------|--9-------------|
D|-------9---7-10-9-7--|-------9---7-9--|
A|---------------------|----------------|
E|---------------------|----------------|

    B        E     G      B        E   F#   B
E|---------------------|-----------------------|
B|---------------------|-----------------------|
G|---9-----------------|--9--------------------|
D|-------9---7-10-9-7--|-------9---7-10-9-7-6--|
A|---------------------|-----------------------|
E|---------------------|-----------------------|


Fin.

Espero que lo entiendan!!!
Suggest correction
Give kudos to tab author, rate the tab!
1 2 3 4 5
comments
print report bad tab
guest
Wanna post a correction for this tab? Suggest correction