Oops, an error
Loading. Please wait.

Aves Migratorias Tab

version 2
version 2

Whole song

60 views 3 this week
no commentswrite comment
1 2 3 4 5
3 more votes to show rating
add to favorites
launch autoscroll
font size
0
reset
how to read this tab
guitar tuner
×
Best way to learn
"Aves Migratorias"
Autoscroll
slow
fast
+/-
esc
set tempo
stop
Introducción

Guitarra 1
e|----------------------------------------
B|----------------------------------------
G|-------------------------------7-7------
D|-4-4-------7-7-------9-9-------7-7------
A|-4-4-------7-7-------9-9-------5-5------
E|-2-2--x-0--5-5--x-0--7-7--x-0-------x-0-

Guitarra
e|-----2------------|
B|------------------|
G|--4b----4-2-4---2-|
D|--------------4---|
A|------------------|
E|------------------|

e|----------|------------
B|----------|------------
G|----------|------------ x2
D|----------|------------
A|-5h7-5-4--|-222---4----
E|----------|-----5----2-

e|---------|---------|
B|---------|---------|
G|---------|---------| x2
D|---------|---------|
A|-5h7-5-4-|-222-4---|
E|---------|-------2-|

Solo:
e|----------------------------
B|----------7-----7-9-7-11/15-
G|--6~~-7-9---9---------------
D|----------------------------
A|----------------------------
E|----------------------------

-----------------
-----------------
-6-4---6b-6b-6b--
-----6-----------
-----------------
-----------------

--------------
--------------
-4-2---2------
-----4-----4--
---------4----
--------------

--------------|
--------------|
-4br-2--------|
-------4-2----|
-----------4-2|
--------------|
Suggest correction
Give kudos to tab author, rate the tab!
1 2 3 4 5
comments
print report bad tab
guest
You may want to rate the tab now too:
select rating
Wanna post a correction for this tab? Suggest correction