Oops, an error
Loading. Please wait.

Boggart Blues Tab

version 1
version 1

Whole song

86 views 1 this week
no commentswrite comment
1 2 3 4 5
3 more votes to show rating
add to favorites
launch autoscroll
font size
0
reset
how to read this tab
guitar tuner
Autoscroll
slow
fast
+/-
esc
set tempo
stop
Help us to improve Ultimate-Guitar.com Take our survey!
×
INTRO
GUITARRA:

E|-----|----------------------------3---------|
B|-----|---3/4---3/4------3/4-----0---------0-|
G|-4-4-|---3/4---3/4---0--3/4-3-2-0---------0-|
D|-5-5-|-5-----5-----5----------------0-3h5---|
A|-5-5-|--------------------------------------|
E|-3-3-|--------------------------------------|
                                         DO       RE7
E|---------------------------3---------|-----0-|-----2-|
B|---3/4---3/4-----3/4-----0---------0-|-----1-|-----1-|
G|---3/4---3/4---0-3/4-3-2-0---------0-|---0---|---2---| X2
D|-5-----5-----5---------------0-3h5---|-2-----|-0-----|
A|-------------------------------------|-------|-------|
E|-------------------------------------|-------|-------|
                                        UH AY,AY,AY,AY

VERSO 1
GUITARRA:
                                         DO       RE7
E|---------------------------3---------|-----0-|-----2-|
B|---3/4---3/4-----3/4-----0---------0-|-----1-|-----1-|
G|---3/4---3/4---0-3/4-3-2-0---------0-|---0---|---2---| X4
D|-5-----5-----5---------------0-3h5---|-2-----|-0-----|
A|-------------------------------------|-------|-------|
E|-------------------------------------|-------|-------|

LETRA:

Creiste que yo te seguiria

pero te equivocaste,nena,por mi

yo me hice el violento,el hombre fuerte

y hoy pago las consecuencias al fin.

INTERMEDIO 1
GUITARRA:

E|-----------------------------------|
B|-----------------------------------|
G|-----------------------------------|
D|-----------------------------------|
A|---------0-2-3-3-3-3-3-2-0---0-2-3-|
E|-3-3-3-3-------------------3-------|

VERSO 2
GUITARRA :

E|---------------0-|-------------0-------0-|-------0-------0-|
B|---------------1-|-------------1-0h1h3---|-------0-------0-|
G|-3-3-3-3-3-3-3-3-|-5-5-5-5-4-3-3---------|-5-5-5-5-5-5-5-5-|
D|-2-2-2-2-2-2-2-2-|-4-4-4-4-3-2-2---------|-4-4-4-4-4-4-4-4-|
A|-3-3-3-3-3-3-3-3-|-5-5-5-5-4-3-3---------|-5-5-5-5-5-5-5-5-|
E|-----------------|-----------------------|-----------------|

E|-------------------0-|-------0-----0---0-|-------0------0----0-|
B|-------------------0-|-------0-----0---0-|-------0------0----0-|
G|-6-6-7-7-6-7-6-7-5-5-|-5-5-5-5-5-5-5-5-5-|-3-3-3-3--3-3-3--3-3-|
D|-5-5-6-6-5-6-5-6-4-4-|-4-4-4-4-4-4-4-4-4-|-2-2-2-2--2-2-2--2-2-|
A|-6-6-7-7-6-7-6-7-5-5-|-5-5-5-5-5-5-5-5-5-|-3-3-3-3--3-3-3--3-3-|
E|---------------------|-------------------|---------------------|

E|---0---0-|-------------------0-0-0-----|-------0---0---0-0---------0-0-|
B|---0---0-|-------------------0-0-0-----|-------0---0---0-0---------0-0-|
G|-5-5-5-5-|-------3-3-6-5-4-3-3-3-3-3-3-|-5-5-5-5-3-3-3-3-3-6-5-4-3-3-3-|
D|-4-4-4-4-|-0-1-2-2-2-5-4-3-2-2-2-2-2-2-|-4-4-4-4-2-2-2-2-2-5-4-3-2-2-2-|
A|-5-5-5-5-|-------3-3-6-5-4-3-3-3-3-3-3-|-5-5-5-5-3-3-3-3-3-6-5-4-3-3-3-|
E|---------|-----------------------------|-------------------------------|

E|-----|-------0-----|
B|-----|-------0-----|
G|-3-3-|-5-5-5-5-5-3-|
A|-2-2-|-4-4-4-4-4-2-|
D|-3-3-|-5-5-5-5-5-3-|
E|-----|-------------|

LETRA:

Y hoy me encuentro tirado incapaz

sin ganas de vivir

pensando seriamente que ya

nose si voy a seguir

yo quise ser muy duro y me salio mal

y ahora veo que

todo esta por acabar

el film termina bien

solo en las de humprey boggart

FINAL :
                           DO7 SOL
E|----4-----3-----2-------|----3-||
B|------------------------|----0-||
G|-/4---4-3---3-2---2p0---|-3--0-||
D|----------------------2-|-2--0-||
A|------------------------|-3--2-||
E|------------------------|----3-||
    turnaround de blues

Fin.
Suggest correction
Give kudos to tab author, rate the tab!
1 2 3 4 5
comments
print report bad tab
guest
You may want to rate the tab now too:
select rating
Wanna post a correction for this tab? Suggest correction