Oops, an error
Loading. Please wait.

Boggart Blues Tab

version 2
version 2

Whole song

63 views 1 this week
no commentswrite comment
1 2 3 4 5
3 more votes to show rating
add to favorites
launch autoscroll
font size
0
reset
how to read this tab
guitar tuner
×
Best way to learn
"Boggart Blues"
Autoscroll
slow
fast
+/-
esc
set tempo
stop
Intro: G
    G                                    G
1|-----|--------------------------3------3---|
2|-----|-0-2/3-0-2/3-0-2/3-2-1-0---------0---|
3|-4-4-|-0-3/4-0-3/4-0-3/4-3-2-0-------0-0---|
4|-5-5-|-0-----0-----0-------------0^2---0---|
5|-5-5-|---------------------------------2---|
6|-3-3-|---------------------------------3---|

                                    G       C7      D7
1|---------------------------3------3---||-----0-|-----2-|
2|--0-2/3-0-2/3-0-2/3-2-1-0---------0---||-----1-|-----1-|
3|--0-3/4-0-3/4-0-3/4-3-2-0-------0-0---||---0---|---2---| (X2)
4|--0-----0-----0-------------0^2---0---||-2-----|-0-----|
5|----------------------------------2---||-------|-------|
6|----------------------------------3---||-------|-------|
                                           UH,AY,AY,AY,AY

VERSO 1:
                                    G
1|---------------------------3------3---|
2|--0-2/3-0-2/3-0-2/3-2-1-0---------0---|
3|--0-3/4-0-3/4-0-3/4-3-2-0-------0-0---| RIFF 1
4|--0-----0-----0-------------0^2---0---|
5|----------------------------------2---|
6|----------------------------------3---|

    C7      D7
1|-----0-|-----2-|
2|-----1-|-----1-|
3|---0---|---2---| RIFF 2
4|-2-----|-0-----|
5|-------|-------|
6|-------|-------|

|--RIFF 1--|

Creiste que yo te seguiria
|--RIFF 2--|

pero te equivocaste,nena,por mi |--RIFF 1--|
|--RIFF 2--|

yo me hice el violento,el hombre fuerte |--RIFF 1--|
|--RIFF 2--|

y hoy pago las consecuencias al fin.
|--RIFF 2--|

E|-----------------------------------|
B|-----------------------------------|
G|-----------------------------------|
D|-----------------------------------|
A|---------0-2-3-3-3-3-3-2-0---0-2-3-|
E|-3-3-3-3-------------------3-------|

VERSO 2 :

E|---------------0-|-------------0-------0-|-------0-------0-|
B|---------------1-|-------------1-0h1h3---|-------0-------0-|
G|-3-3-3-3-3-3-3-3-|-5-5-5-5-4-3-3---------|-5-5-5-5-5-5-5-5-|
D|-2-2-2-2-2-2-2-2-|-4-4-4-4-3-2-2---------|-4-4-4-4-4-4-4-4-|
A|-3-3-3-3-3-3-3-3-|-5-5-5-5-4-3-3---------|-5-5-5-5-5-5-5-5-|
E|-----------------|-----------------------|-----------------|
  Y hoy me...                               pensando serimente...

E|-------------------0-|-------0-----0---0-|-------0------0----0-|
B|-------------------0-|-------0-----0---0-|-------0------0----0-|
G|-6-6-7-7-6-7-6-7-5-5-|-5-5-5-5-5-5-5-5-5-|-3-3-3-3--3-3-3--3-3-|
D|-5-5-6-6-5-6-5-6-4-4-|-4-4-4-4-4-4-4-4-4-|-2-2-2-2--2-2-2--2-2-|
A|-6-6-7-7-6-7-6-7-5-5-|-5-5-5-5-5-5-5-5-5-|-3-3-3-3--3-3-3--3-3-|
E|---------------------|-------------------|---------------------|
                        yo quise ser...      y ahora veo que..

E|---0---0-|-------------------0-0-0-----|-------0---0---0-0---------0-0-|
B|---0---0-|-------------------0-0-0-----|-------0---0---0-0---------0-0-|
G|-5-5-5-5-|-------3-3-6-5-4-3-3-3-3-3-3-|-5-5-5-5-3-3-3-3-3-6-5-4-3-3-3-|
D|-4-4-4-4-|-0-1-2-2-2-5-4-3-2-2-2-2-2-2-|-4-4-4-4-2-2-2-2-2-5-4-3-2-2-2-|
A|-5-5-5-5-|-------3-3-6-5-4-3-3-3-3-3-3-|-5-5-5-5-3-3-3-3-3-6-5-4-3-3-3-|
E|---------|-----------------------------|-------------------------------|
                   solo los deja...

E|-----|-------0-----|
B|-----|-------0-----|
G|-3-3-|-5-5-5-5-5-3-|
A|-2-2-|-4-4-4-4-4-2-|
D|-3-3-|-5-5-5-5-5-3-|
E|-----|-------------|
         el fin ter..

FINAL :
                           DO7 SOL
E|----4-----3-----2-------|----3-||
B|------0-----0-----0-----|----0-||
G|-/4-----3-----2---------|-3--0-||
D|--------------------2---|-2--0-||
A|------------------------|-3--2-||
E|------------------------|----3-||

===========================================================

  visiten.. muy buena.. la hize io =)

============================================================

maty7_7@
Suggest correction
Give kudos to tab author, rate the tab!
1 2 3 4 5
comments
print report bad tab
guest
You may want to rate the tab now too:
select rating
Wanna post a correction for this tab? Suggest correction