Oops, an error
Loading. Please wait.

Boggart Blues Tab

version 3
version 3

Whole song

60 views 3 this week
no commentswrite comment
1 2 3 4 5
3 more votes to show rating
add to favorites
launch autoscroll
font size
0
reset
how to read this tab
guitar tuner
×
Best way to learn
"Boggart Blues"
Autoscroll
slow
fast
+/-
esc
set tempo
stop
INTRO: G

     G                                     G
1|--3-3-|--------------------------3-------3---|
2|--3-3-|-0-2/3-0-2/3-0-2/3-2-1-0----------0---|
3|--0-0-|-0-3/4-0-3/4-0-3/4-3-2-0-------0--0---|
4|--0-0-|-0-----0-----0-------------0^2----0---|
5|--2-2-|----------------------------------2---|
6|--3-3-|----------------------------------3---|

                                    G             C           D7
1|---------------------------3------3---||-------0-------|-------2-|
2|--0-2/3-0-2/3-0-2/3-2-1-0---------0---||---------1---1-|-----1---|
3|--0-3/4-0-3/4-0-3/4-3-2-0-------0-0---||-----0---------|---2-----|
4|--0-----0-----0-------------0^2---0---||---2-------0---|-0-------|
5|----------------------------------2---||-3-------------|---------|
6|----------------------------------3---||---------------|---------|
                                              Uhh, ay ay ay ay

          RIFF 1                          RIFF 2
                                    G             C           D7
1|---------------------------3------3---||-------0-------|-------2-|
2|--0-2/3-0-2/3-0-2/3-2-1-0---------0---||---------1---1-|-----1---|
3|--0-3/4-0-3/4-0-3/4-3-2-0-------0-0---||-----0---------|---2-----|
4|--0-----0-----0-------------0^2---0---||---2-------0---|-0-------|
5|----------------------------------2---||-3-------------|---------|
6|----------------------------------3---||---------------|---------|

             RIFF 3               RIFF 4
1|-----------------------------------|---------|
2|-----------------------------------|---------|
3|-----------------------------------|-------5-|
4|-----------------------------------|-------4-|
5|----------0-2-3-3-3-3-2-0---0-2-3--|-3-4-5-5-|
6|--3-3-3-3-----------------3--------|---------|

       NOTA 1      NOTA 2 Y 3
1|---------------0-|----------------|
2|---------------1-|----------------|
3|-3-3-3-3-3-3-3-3-|-5-5-6-6-5-6-5--|
4|-2-2-2-2-2-2-2-2-|-4-4-5-5-4-5-4--|
5|-3-3-3-3-3-3-3-3-|-5-5-6-6-5-6-5--|
6|-----------------|----------------|

RIFF 1
RIFF 2
Creíste que yo te seguiría
RIFF 1
RIFF 2
Pero te equivocaste, nena, por mí
RIFF 1
RIFF 2
Yo me hice el violento, el hombre fuerte
RIFF 1
RIFF 2                           RIFF 3
Y hoy pago las consecuencias al fin.
 NOTA 1
Y hoy me encuentro tirado incapaz
G5        F#5 F5 E
Sin ganas de vivir
A5
Pensando seriamente que ya
NOTAS 2 y 3
no sé si voy a seguir.
G5
Yo quise ser muy duro
Y me salió mal
NOTA 1
Y ahora veo que
         A5
Todo está por acabar.
G5                 RIFF 4
El film termina bien
                               FINAL
sólo en las de Humprey Boggart.

FINAL
                            A5 G5
E|----4-----3-----2-------|-x--x-||
B|------0-----0-----0-----|-x--x-||
G|-/4-----3-----2---------|-x--x-||
D|--------------------2---|-7--5-||
A|------------------------|-7--5-||
E|------------------------|-5--3-||

Version de Skay en vivo en la Rock and Pop, lo saque viendo el video
cualquier cosa a luks.159@ que la disfruten ;)

Luks.
Suggest correction
Give kudos to tab author, rate the tab!
1 2 3 4 5
comments
print report bad tab
guest
You may want to rate the tab now too:
select rating
Wanna post a correction for this tab? Suggest correction