Oops, an error
Loading. Please wait.

Bye Bye Tab

14 views 1 this week
no commentswrite comment
1 2 3 4 5
3 more votes to show rating
add to favorites
×
Save as Personal and add changes to this tab that will be seen only by you. Learn more ›
×
You can save this tab as Personal to edit and correct it or add notes. All changes will be seen only by you. Learn more »
save as personal
new!
launch autoscroll
font size
0
reset
how to read this tab
guitar tuner
Autoscroll
slow
fast
+/-
esc
set tempo
stop
INTRO:

    G                   G
E|-3-3-------------------(3)---|
B|-0---3-(2)---5---3-----(3)---|
G|-0---------0---0-----0-------|x2
D|-----------------------------|
A|-----------------------------|
E|-----------------------------|

   C                      G   C    G
E|------------------------3---0-0--3-3-3---|
B|------------------------3---1-1--3-3-3---|
G|-5--4-5--4-5--4-5--4-4--0---0-0--0-0-0---|
D|------------------------0---2-2--0-0-0---|
A|------------------------2---3-3--2-2-2---|
E|------------------------3--------3-3-3---|

   C         Cm            G   C    G
E|-------------------------3---0-0--3-3-3---|
B|-----------4--4-3--------3---1-1--3-3-3---|
G|-5--4-5--5--------5-4----0---0-0--0-0-0---|
D|----------------------5--0---2-2--0-0-0---|
A|-------------------------2---3-3--2-2-2---|
E|-------------------------3--------3-3-3---|


G
Voy a ser polvo
G
Voy a volver
C                                G   (C - G)
Voy a ser el viento entre los arboles
C             Cm               G   (C - G)
Voy a ser la brisa que te haga reir


G
Vuelvo a ser aire
G
Vuelvo a ser pez
C                                 G   (C - G)
Voy a ser tu aliento, voy a ser tu voz
C             Cm             G   (C - G)
Voy a ser, quizas, tu respiración


INTERLUDIO:

E|--(13)-11--13--10----|-13-13--13-11--13--10---|
B|--(13)-13--13--12----|-13-13--13-13--13--12---|
G|---------------------|------------------------|
D|---------------------|------------------------|
A|---------------------|------------------------|
E|---------------------|------------------------|

   C         Cm          G     C      G
E|------------------------------------------|
B|-----------4--4-3-------------------------|
G|-5--5-5--5--------5-4---------------------|
D|----------------------(5)------------5----|
A|-----------------------------3-3-3-3------|
E|------------------------------------------|

    Dm                              Dm
E|-------1---------1-0----------|------1-0-1----3-1---0-1--|
B|-----3---------------3-1-3----|-------------3----3-------|
G|---2--------------------------|---2----------------------|
D|-0----------------------------|-0------------------------|
A|------------------------------|--------------------------|
E|------------------------------|--------------------------|

      Voy a pescar...                 ...estrellas

    Dm                              Dm
E|------1-0-1----3-1---0-1--|-----1-0-1---3---1-----|
B|-------------3----3-------|------------3------3-1-|
G|---2----------------------|---2-------------------|
D|-0------------------------|-0---------------------|
A|--------------------------|-----------------------|
E|--------------------------|-----------------------|

Voy a rodar, rodar              Rodar, rodar...

   C                  G
E|------------------------------7-------|
B|-------------------------(8)----8-8~--|
G|--5-5-5--5-4-5-7-7--------------------|
D|----------------------5---------------|
A|--------------------------------------|
E|--------------------------------------|


C
Voy a ser luna
C
Voy a ser Sol
C                              G   (C - G)
Voy a ser el trueno que te haga temblar
C            Cm                G   (C - G)
Voy a ser tu risa, voy a ser cancion


E|--(13)-11--13--10----|-13-13--13-11--13--10---|
B|--(13)-13--13--12----|-13-13--13-13--13--12---|
G|----------------00000|------------------------|
D|---------------------|------------------------|
A|---------------------|------------------------|
E|---------------------|------------------------|


   C                      G   C    G
E|------------------------3---0-0--3-3-3---|
B|------------------------3---1-1--3-3-3---|
G|-5--4-5--4-5--4-5--4-4--0---0-0--0-0-0---|
D|------------------------0---2-2--0-0-0---|
A|------------------------2---3-3--2-2-2---|
E|------------------------3--------3-3-3---|


FADE OUT

FIN.
Suggest correction
Give kudos to tab author, rate the tab!
1 2 3 4 5
comments
print report bad tab
guest
Wanna post a correction for this tab? Suggest correction