Oops, an error
Loading. Please wait.

Con Los Ojos Cerrados Tab

version 1
version 1

Whole song

13 views 1 this week
no commentswrite comment
1 2 3 4 5
3 more votes to show rating
add to favorites
launch autoscroll
font size
0
reset
how to read this tab
guitar tuner
Autoscroll
slow
fast
+/-
esc
set tempo
stop
Help us to improve Ultimate-Guitar.com Take our survey!
×
  Bueno gente habia tablaturas anteriores que estaban bien pero
incompletas o con leves pifiadas, yo corregi loque pude
lo que estaba bien lo deje asi y agregue los punteos entre versos
que hace la 1ra guitarra, tambien una version
un poco mejorada de los solos.


tiempo abajo : emieza a sonar la guitarra.
tiempo arriba : inicio del verso.
b : estirar
r : soltar
br : estirar y soltar
/ : arrastrar
p : (push off) soltar y dejar en la nota ke diga ej: 6p4
      se hace sonar el 6 y se suelta dejando ke suene el 4.
h : (hammer on) martiyar la nota siguiente ej : 8h10 se hace
     sonar el 8 y se golpea manteniendo el dedo el 10.

pm : (palm mute) se apoya levemente la palma sobre las cuerdas
     oacando el sonido sin apagarlo


Intro:


e|----1------1~----3-----3~---1-----1----3-3-3-3--xx-6-6---|
b|----3------3~----2-----2~---3-----3----2-2-2-2--xx-5-5---|
g|----2------2~----3-----3~---2-----2----3-3-3-3--xx-6-6---|  x2
D|--0---0-0-----2----2-2----x---0-0---2--------------5-5---|
A|---------------------------------------------------------|
E|---------------------------------------------------------|

pm: .   . .     .    . .    .   . .   .           ..

Riff 1: (en la adaptacion a guitarra la otra viola sigue haciendo
          lo mismo que en la intro y en los versos)

  Adaptacion a guitarra  |    guitarra

e|-----------------------|---------------------|
b|-9/10------10/11-10-10~|---------------------|
g|-----10-8-9------------|---------------------|
D|-----------------------|0000-3~--5555-7-5-3~-|
A|-----------------------|-------5-------------|
E|-----------------------|---------------------|


Riff 2:

  Adaptacion a guitarra  |    guitarra

e|-----------------------|-------------------|
b|-9/10-------10/11-10---|-------------------|
g|-----10-8-9------------|-------------------|
D|--------------------12)|0000-3~--5555-3-2--|
A|-----------------------|-------5---------5-|
E|-----------------------|-------------------|

verso: (segunda guitarra)

e|----1------1~----3-----3~---1-----1----3-3-3-3--xx-6-6---|
b|----3------3~----2-----2~---3-----3----2-2-2-2--xx-5-5---|
g|----2------2~----3-----3~---2-----2----3-3-3-3--xx-6-6---|  x4
D|--0---0-0-----2----2-2----x---0-0---2--------------5-5---|
A|---------------------------------------------------------|
E|---------------------------------------------------------|


No solo era un racimo de uvas cualquiera
                                      2º
no era tampoco un tipo de vida especial.
                              3º
cada uva  traia una semilla
                                        4º
cada semilla una historia para contar.


  0:54  | 1:02 | 1:11             | 1:18 :inicio del verso.
        | 1:07 | 1:16             | 1:24 :emieza a sonar la guitarra.

e|------|------|------------------|----8-10--1212b-|
b|------|-6~~~-|-6-5-6-8--6-5-----|-/10------------|
g|------|------|--------------7---|----------------|
D|------|------|----------------7-|----------------|
A|------|------|------------------|----------------|
E|------|------|------------------|----------------|

    1º     2º          3º               4º           : versos
··························································

intervalo... ponele :p


Riff 1:

e|-----------------------|---------------------|
b|-9/10------10/11-10-10~|---------------------|
g|-----10-8-9------------|---------------------|
D|-----------------------|0000-3~--5555-7-5-3~-|
A|-----------------------|-------5-------------|
E|-----------------------|---------------------|

Riff 2:

e|-----------------------|-------------------|
b|-9/10-------10/11-10---|-------------------|
g|-----10-8-9------------|-------------------|
D|--------------------12)|0000-3~--5555-3-2--|
A|-----------------------|-------5---------5-|
E|-----------------------|-------------------|


···························································


2º verso: (segunda guitarra igual)

                                       1º
Un solo punto de vista debajo del cielo
                              2º
una mirada siempre partícular
                                             3º
siempre esperando del este que salga la luna
                                                4º
siempre al oeste mirando cuando el sol se va


  1:43               | 1:51                | 1:59       | 2:07
  1:47               | 1:55                | 2:04       | 2:12

e|-------------------|--------10b-10rp8h10-|------------|------------|
b|----5-6-8-6-5------|-/10 10~-------------|-6~-8-6-5---|--5-6-5-----|
g|-7~~----------7----|---------------------|----------7-|--------7---|
D|---------------7~--|---------------------|------------|-x-------7~-|
A|-------------------|---------------------|------------|------------|
E|-------------------|---------------------|------------|------------|

       1º                     2º                3º            4º


·························

intervalo*: (igual)

·························


3er verso: (segunda guitarra igual)


                                             1º
Quien sabe cuantas noches y días de lluvia
                                        2º
cada gota trayendo un nuevo temblor
                                          3º
otras noches oscuras plagadas de estrellas
                                                  4º
bailando en el cielo infinito de tanto brillar


   2:31           | 2:39                         |
   2:36           | 2:44                         |

e|----------------|------------------------------|
b|-6-5-6-8p6-6p5--|------10-13-11-10---------/10~|
g|--------------7-|-10-12------------12-10-12----|
D|----------------|------------------------------|
A|----------------|------------------------------|
E|----------------|------------------------------|

      1º                   2º


  2:48                               | 2:55
  2:51                               | 3:01

e|---10------------------------------|------------|
b|-10b--10r-8--10--------------------|-x-6-5-6-8~-|
g|------------9---9-10-12p10p9p7-----|------------|
D|-------------------------------10~-|------------|
A|-----------------------------------|------------|
E|-----------------------------------|------------|

              3º                      4º

:::::::::::::::::::::::::::::::::::::::::::::::::::::::::::::::::::::


Solo (1):

  3:03

e|---------------------------
b|-6-5------6-5--------------
g|-----7--------7---5-7------
D|-------8~-------8~----/7~--
A|---------------------------
E|---------------------------

-------------------8br-----8br-------------------5-5~-|
-------------6-----8br6-8b-8br6-8b-68-8~------5-8-----|
----------5-7--7~--------------------------5-7--------|
-----3-5/7-------------------------------7------------|
-3-5--------------------------------------------------|
------------------------------------------------------|
::::::::::::::::::::::::::::::::::::::::::::::::::::::::::::::::::::::

4to verso: (segunda guitarra igual)

                             riff1
Una gota de lluvia irrepetible
                                   riff2
esa única estrella en la inmensidad
                               riff1
cada uva un DIA que ya no vuelve
                                   riff2
cada racimo una uva en la eternidad

   riff 1                  riff 2

e|----------------------|-----------------------|
b|----------------------|-----------------------|
g|----------------------|-----------------------|
D|-0000-3~--5555-7-5-3~-|-0000-3~---5555-3-2----|
A|--------5-------------|---------5----------5--|
E|----------------------|-----------------------|

::::::::::::::::::::::::::::::::::::::::::::::::::::::::::::::::::::::


Solo (2):  engancha desde el verso:


 3:52

e|------------------------------------------------------
b|-----------------------6--6-8b-8b-8rp6h8~-6-8b-6------
g|-------------------5-7--7------------------------77~--
D|-4/5-4h5~~----3-5h7-----------------------------------
A|-----------3-5----------------------------------------
E|------------------------------------------------------

e|---8---------5-6-5---5-6-5~-|
b|-8b-8r6--6-8-------8--------|
g|-------7--------------------|
D|----------------------------|
A|----------------------------|
E|----------------------------|


::::::::::::::::::::::::::::::::::::::::::::::::::::::::::::::::::::::

fin:

  acordeon o lo ke sea
   pasado a guitarra

e|---------5~-----|----------------|
b|-6/7~------87~~-|--7-8/10-8--5-6-|
g|----7-----------|-7---------7-6--|  fade out.
D|-----78~--------|----------------|
A|----------------|----------------|
E|----------------|----------------|


Cualquier consulta pueden mandarme un mail a aaee26410@
  Espero que les sirva me costo bastante...
no sacarlo sino tipear la tablatura :p saludos y vamos
los redondos!!


la corregi un par de veces para mejorarla en algunos lugares

ultima correccion 4/12/11
Suggest correction
Give kudos to tab author, rate the tab!
1 2 3 4 5
comments
print report bad tab
guest
You may want to rate the tab now too:
select rating
Wanna post a correction for this tab? Suggest correction