Oops, an error
Loading. Please wait.

Dragones Chords

14 views 1 this week
no commentswrite comment
1 2 3 4 5
3 more votes to show rating
add to favorites
launch autoscroll
font size
0
reset
transpose
0
reset
display chords
guitar tuner
×
Best way to learn
"Dragones"
Autoscroll
slow
fast
+/-
esc
set tempo
stop
El tema empieza con un D tocado de abajo para arriba. 
despues repite un par de veces la nota D (hecho en la cuerda 5) 
pero mas o menos tapado.

E-----------------------------------------------
B-----------------------------------------------
G-----2-----4---2--------------------2----------
D-4-5---4-5---5---4---2-2-4-5-2--4-5---4--------
A-----------------------------------------------
E-----------------------------------------------

E-----------------------------------------------
B-----------------------------------------------
G------2-----4---2------------------------------
D-4-5----4-5---5---4--2-2-4-5-2-5-2-------------
A-----------------------------------4-5---------
E-----------------------------------------------

Despues de ese riff que hace dos veces hace lo mismo en todo el tema

Bm - F# - A - Bm

Tiene cara de mosca, oreja de chancho, pata de cabra.
Trompa de elefante y culo de mandril.

Riff

Tiene su morada en el alma de los hombres.
Ese territorio, es su casa y su jardín.

Riff

El dragón acecha tu castillo.
Le abre las puertas de tu corazón.
Mira tus ojos, roba su brillo.
Deja su mueca y su aliento de dragón.

Riff

Dice que lo han visto la otra noche, la otra noche.
Todo cubierto de barro recorriendo la ciudad.

Riff

Y durante la melodia del riff, le pueden agregar una segunda guitarra 
que haga D - G - D - Dm A -D, excepto en una que hace Dm - G - Dm - Dm - Am Dm

     D  G  A Dm Bm F#

1    2  3  0  1  2  2
2    3  0  2  3  3  2
3    2  0  2  2  4  3
4    0  0  2  0  4  4
5    x  2  0  x  2  4
6    x  3  x  x  x  2

Eso es todo
Suggest correction
Give kudos to tab author, rate the tab!
1 2 3 4 5
comments
print report bad tab
guest
You may want to rate the tab now too:
select rating
Wanna post a correction for this tab? Suggest correction