Oops, an error
Loading. Please wait.

Dragones Tab

version 3
version 3

Whole song

41 views 1 this week
no commentswrite comment
1 2 3 4 5
3 more votes to show rating
add to favorites
×
Save as Personal and add changes to this tab that will be seen only by you. Learn more ›
×
You can save this tab as Personal to edit and correct it or add notes. All changes will be seen only by you. Learn more »
save as personal
new!
launch autoscroll
font size
0
reset
how to read this tab
guitar tuner
Autoscroll
slow
fast
+/-
esc
set tempo
stop
Intro:

E|--2-----------------------------------|
B|---3----------------------------------|
G|----2---------------------------------|
D|-----0----0-0--0-0-0-0-0-0--0-0--0-0--|
A|--------------------------------------|
E|--------------------------------------|

   D           G        D        A         D
E|--------------7------------------------------------|
B|-7-8-10---7-8---8-7-10-7-------7-8----7-8-10-7-----|
G|---------------------------7-9-----9---------------|
D|---------------------------------------------------|
A|---------------------------------------------------|
E|---------------------------------------------------|

   D           G        D        A         D
E|--------------7------------------------------------|
B|-7-8-10---7-8---8-7-10-7-------7-8-----------------|
G|---------------------------7-9-----9---6-7-6-7-----|
D|---------------------------------------------------|
A|---------------------------------------------------|
E|---------------------------------------------------|

A                   D
Tiene cara de mosca
E
Orejas de chancho
A
Patas de cabra
A           D       E          A
Trompa de elefante y culo de mandril


TECLADO:

   A        D       E           A
E|-------------------------------------|
B|----------7--------------------------|
G|--4---------------6----------4-------|
D|-------------------------------------|
A|-------------------------------------|
E|-------------------------------------|

---------------------------------------------

   D           G        D        A         D
E|--------------7------------------------------------|
B|-7-8-10---7-8---8-7-10-7-------7-8----7-8-10-7-----|
G|---------------------------7-9-----9---------------|
D|---------------------------------------------------|
A|---------------------------------------------------|
E|---------------------------------------------------|

   D           G        D        A         D
E|--------------7------------------------------------|
B|-7-8-10---7-8---8-7-10-7-------7-8-----------------|
G|---------------------------7-9-----9---6-7-6-7-----|
D|---------------------------------------------------|
A|---------------------------------------------------|
E|---------------------------------------------------|


A            D
Tiene su morada
E                     A
en el alma de los hombres
A               D
es su territorio,
E                   A
Es su casa y su jardín

   D           G        D        A         D
E|--------------7------------------------------------|
B|-7-8-10---7-8---8-7-10-7-------7-8----7-8-10-7-----|
G|---------------------------7-9-----9---------------|
D|---------------------------------------------------|
A|---------------------------------------------------|
E|---------------------------------------------------|

   D           G        D        A         D
E|--------------7------------------------------------|
B|-7-8-10---7-8---8-7-10-7-------7-8-----------------|
G|---------------------------7-9-----9---6-7-6-7-----|
D|---------------------------------------------------|
A|---------------------------------------------------|
E|---------------------------------------------------|


El cabrón acecha tu castillo

E|-----------5---------|
B|-----------5---------|
G|-----------6---------|
D|-------7-------------|
A|-------7-------------|
E|--1/---5-------------|

Lame las puertas de tu corazón

E|-----------5-------5-|
B|-----------5-----5---|
G|-----------6---6-----|
D|-------7-------------|
A|-------7-------------|
E|--1/---5-------------|

Mira tus ojos roba su brillo

E|-----------5---------|
B|-----------5---------|
G|-----------6---------|
D|-------7-------------|
A|-------7-------------|
E|--1/---5-------------|

Deja su mueca, su aliento de dragón.


   D           G        D        A         D
E|--------------7------------------------------------|
B|-7-8-10---7-8---8-7-10-7-------7-8----7-8-10-7-----|
G|---------------------------7-9-----9---------------|
D|---------------------------------------------------|
A|---------------------------------------------------|
E|---------------------------------------------------|

   D           G        D        A         D
E|--------------7------------------------------------|
B|-7-8-10---7-8---8-7-10-7-------7-8-----------------|
G|---------------------------7-9-----9---6-7-6-7-----|
D|---------------------------------------------------|
A|---------------------------------------------------|
E|---------------------------------------------------|


PUENTE:


E|------------------------------------|
B|------------------------------------|
G|------------------------------------| X2
D|---------------7-------5-------4----|
A|--5-4-5----5-4-----5-4-----5-4---5--|
E|------------------------------------|

   A         D       A        E         A
E|-------------------------------------------------|
B|--------------7----------------------------------|
G|--6-7-9---6-7-----7-6-9-6-------6-7-----6-7-9-6--|
D|----------------------------7-9-----9------------|
A|-------------------------------------------------|
E|-------------------------------------------------|

   A         D       A        E         A
E|-------------------------------------------------|
B|--------------7----------------------------------|
G|--6-7-9---6-7-----7-6-9-6-------6-7--------------|
D|----------------------------7-9-----9--6-7-6-7---|
A|-------------------------------------------------|
E|-------------------------------------------------|


   D           G        D        A         D
E|--------------7------------------------------------|
B|-7-8-10---7-8---8-7-10-7-------7-8----7-8-10-7-----|
G|---------------------------7-9-----9---------------|
D|---------------------------------------------------|
A|---------------------------------------------------|
E|---------------------------------------------------|

   D           G        D        A         D
E|--------------7------------------------------------|
B|-7-8-10---7-8---8-7-10-7-------7-8-----------------|
G|---------------------------7-9-----9---6-7-6-7-----|
D|---------------------------------------------------|
A|---------------------------------------------------|
E|---------------------------------------------------|

A                 D              E              A
Dicen que lo han visto la otra noche, la otra noche
A                  D
Todo cubierto de barro
E                   A
recorriendo la ciudad.


   D           G        D        A         D
E|--------------7------------------------------------|
B|-7-8-10---7-8---8-7-10-7-------7-8----7-8-10-7-----|
G|---------------------------7-9-----9---------------|
D|---------------------------------------------------|
A|---------------------------------------------------|
E|---------------------------------------------------|

   D           G        D        A         D
E|--------------7------------------------------------|
B|-7-8-10---7-8---8-7-10-7-------7-8-----------------|
G|---------------------------7-9-----9---6-7-6-7-----|
D|---------------------------------------------------|
A|---------------------------------------------------|
E|---------------------------------------------------|

   D           G        D        A         D
E|--------------7------------------------------------|
B|-7-8-10---7-8---8-7-10-7-------7-8----7-8-10-7-----|
G|---------------------------7-9-----9---------------|
D|---------------------------------------------------|
A|---------------------------------------------------|
E|---------------------------------------------------|

   D           G        D        A         D
E|--------------7------------------------------------|
B|-7-8-10---7-8---8-7-10-7-------7-8-----------------|
G|---------------------------7-9-----9---6-7-6-7-----|
D|---------------------------------------------------|
A|---------------------------------------------------|
E|---------------------------------------------------|


FIN.
Suggest correction
Give kudos to tab author, rate the tab!
1 2 3 4 5
comments
print report bad tab
guest
Wanna post a correction for this tab? Suggest correction