Oops, an error
Loading. Please wait.

Dragones Tab

version 4
version 4

Whole song

7 views 1 this week
no commentswrite comment
1 2 3 4 5
3 more votes to show rating
add to favorites
launch autoscroll
font size
0
reset
how to read this tab
guitar tuner
×
Best way to learn
"Dragones"
Autoscroll
slow
fast
+/-
esc
set tempo
stop
INTRO:

       RE
e|---2---------------------------------------------|
B|---3---------------------------------------------|
G|---2---------------------------------------------|
D|---0-0-00-00-0000-00-00-0000-0000-000-0000-------|
A|-------------------------------------------------|
E|-------------------------------------------------|
       Pm.. .. ... .. .. ... ... .. .. .. ..
-
RIFF  X 2
e|--------------------------------------------|
B|--------------------------------------------|
G|---0-2-------4-2-0-2-----------0--------2---|
D|-4-----4-0------------4--0-2-4---2--0-2---4-|
A|--------------------------------------------|
E|--------------------------------------------|

e|------------------------------------------|
B|------------------------------------------|
G|---0-2-------4-2-0-2-----------0----------|
D|-4-----4-0------------4--0-2-4---2--------|
A|------------------------------------5-4-5-|
E|------------------------------------------|


VERSO 1:

Tiene cara de mosca, oreja de chancho, pata de cabra
Trompa de elefante y culo de mandril.

RIFF X 1

VERSO 2:

Tiene su morada en el alma de los hombres
Es su territorio, es su casa y su jardín.

RIFF X 1

ESTRIBILLO:

El cabrón acecha tu castillo
Lame las puertas de tu corazón
Mira tus ojos, roba su brillo,
Deja su mueca y su aliento de dragón.

ESTRIBILLO:
      LA     SOL      LA       SOL      LA          SOL      LA
e|----5--|--------------5---|--------------5---|--------------5---|
B|----5--|--------------5---|--------------5---|--------------5---|
G|----6--|--------------6---|--------------6---|--------------6---|
D|----7--|--5/7----7----7---|--5/7----7----7---|--5/7----7----7---|
A|----7--|--5/7----7----7---|--5/7----7----7---|--5/7----7----7---|
E|----5--|--3/5----5----5---|--3/5----5----5---|--3/5----5----5---|


RIFF X 1

(PUENTE) X 2:

       RE m
e|------------------------------|
B|------------------------------|
G|-------------2------0-2-------|
D|-0-2-3---0-2----0-2-----0-----|
A|------------------------------|
E|------------------------------|


SOLO CON BASE DE Rem:
e|-----------------------------------------|
B|-----------------------------------------|
G|------------0----------------------------|
D|--0-2-3-2-0---3-2-3-0-----0-2-----0-3-0--|
A|------------------------4-----4-4--------|
E|-----------------------------------------|

e|-----------------------------------------|
B|-----------------------------------------|
G|------------0----------------------------|
D|--0-2-3-2-0---3-2-3-0-----0-2----3-2-0---|
A|------------------------4-----4----------|
E|-----------------------------------------|

RIFF X 1

VERSO 3:

Dicen que lo han visto la otra noche, la otra noche,
Todo cubierto de barro recorriendo la ciudad.

RIFF X 1

ESTRIBILLO:

El cabrón acecha tu castillo
Lame las puertas de tu corazón
Mira tus ojos, roba su brillo,
Deja su mueca y su aliento de dragón.


FINAL

e|--------------------------------------------|
B|--------------------------------------------|
G|---0-2-------4-2-0-2-----------0--------2---|
D|-4-----4-0------------4--0-2-4---2--0-2---4-|
A|--------------------------------------------|
E|--------------------------------------------|

e|------------------------------------------|
B|------------------------------------------|
G|---0-2-------4-2-0-2-----------0----------|
D|-4-----4-0------------4--0-2-4---2--------|
A|------------------------------------5-4-5-|
E|------------------------------------------|

e|--------------------------------------------|
B|--------------------------------------------|
G|---0-2-------4-2-0-2-----------0--------2---|
D|-4-----4-0------------4--0-2-4---2--0-2---4-|
A|--------------------------------------------|
E|--------------------------------------------|

e|----------------------------------------(2)---|
B|----------------------------------------(3)---|
G|---0-2-------4-2-0-2-----------0----5---(2)---|
D|-4-----4-0------------4--0-2-4---2---5--(0)---|
A|----------------------------------------------|
E|----------------------------------------------|
Suggest correction
Give kudos to tab author, rate the tab!
1 2 3 4 5
comments
print report bad tab
guest
You may want to rate the tab now too:
select rating
Wanna post a correction for this tab? Suggest correction