Oops, an error
Loading. Please wait.

El Golem De Paternal Tab

125 views 3 this week
no commentswrite comment
1 2 3 4 5
3 more votes to show rating
add to favorites
×
Save as Personal and add changes to this tab that will be seen only by you. Learn more ›
×
You can save this tab as Personal to edit and correct it or add notes. All changes will be seen only by you. Learn more »
save as personal
new!
launch autoscroll
font size
0
reset
how to read this tab
guitar tuner
Autoscroll
slow
fast
+/-
esc
set tempo
stop
INTRO

RIFF A
           LAm
e|--------------------------------------|
B|--------------------------------------|
G|--------------------------------------|  X 8
D|--7-------7-------7---------10-7------|
A|--------------------------8-----------|
E|----5--5-----5--5----5--5--------5-5--|

RIFF B
     FA 5ª    LA m               FA 5ª   MIª
e|----------555555-X---555555-|--------------------|
B|----------555555-X---555555-|--------------------|
G|--11------------------------|--11-----11--X-X-11-|
D|--11------------------------|--11-----11--X-X-11-|
A|---8------------------------|---8------7--X-X-7--|
E|----------------------------|--------------------|

RIFF A
Cerró sus ojos para no ver
Tapó su boca para no hablar
Apretó los puños por no gritar
Guardó los sueños en el placard.

RIFF B
-Él es el zombie de paternal
Un nuevo golem en la ciudad.

(PUENTE)
         LA m
e|-555555-X-555555-X--555555-|-----------|-555555-X-555555-X-555555-|--------------|
B|-555555-X-555555-X--555555-|-----------|-555555-X-555555-X-555555-|--------------|
G|---------------------------|-10b-9-10--|--------------------------|-10b-9-10---9-|
D|---------------------------|----------9|--------------------------|----------9---|
A|---------------------------|-----------|--------------------------|--------------|
E|---------------------------|-----------|--------------------------|--------------|


RIFF B
-El es el zombie de paternal
Un nuevo golem en la ciudad

SOLO DE GUITARRA 1


e|---------------------------------------------------------------|
B|---------12br---------12br----------12br--12-10-12-10-12-------|
G|-9-10-12------9-10-12-------9-10-12-----------------------10~~-|
D|---------------------------------------------------------------|
A|---------------------------------------------------------------|
E|---------------------------------------------------------------|

e|-----------------------------------------------------------------|
B|---------12br---13-12-9--12br----------12br--12-10-12-10-12------|
G|-9-10-12----------------------9-10-12-----------------------10~~-|
D|-----------------------------------------------------------------|
A|-----------------------------------------------------------------|
E|-----------------------------------------------------------------|

e|----------------------------------------------------------------------------------|
B|---------12br--15~~--13-12-9--12br--15~~--13-12-9--12br--12-10-12-10-12-----15~~--|
G|-9-10-12----------------------------------------------------------------10~~------|
D|----------------------------------------------------------------------------------|
A|----------------------------------------------------------------------------------|
E|----------------------------------------------------------------------------------|

e|------------------------------------------------------------------------------------|
B|---------12br------13-12-9--12br------13-12-9--12br--12-10-12-10-12-----------------|
G|-9-10-12------14~~---------------14~~-------------------------------10~~----14~~----|
D|------------------------------------------------------------------------------------|
A|------------------------------------------------------------------------------------|
E|------------------------------------------------------------------------------------|

e|----------------------------------------------|
B|----------------9999999999999-----------------|
G|-99999999999999----------------13-12-10-9~~---|
D|----------------------------------------------|
A|----------------------------------------------|
E|----------------------------------------------|

RIFF A
Esta mañana lo vi pasar
Un raro brillo en s mirar
En la vereda el se plantó
No dijo nada solo ladró

RIFF B
Ladró su rabia ladró feroz
Ladró el golem de paternal.


FINAL DE SOLO SOBRE INTRO

suerte con el tema que suena muy bien, a practicarlo que sale
cualquier cosa ahi esta mi e-mail
¡¡aguanten los redondos!!
¡redondo se nace no se hace!


      ¡¡Zippo!!
Suggest correction
Give kudos to tab author, rate the tab!
1 2 3 4 5
comments
print report bad tab
guest
Wanna post a correction for this tab? Suggest correction