Oops, an error
Loading. Please wait.

El Gourmet Del Infierno Tab

version 2
version 2

Whole song

20 views 1 this week
no commentswrite comment
1 2 3 4 5
3 more votes to show rating
add to favorites
launch autoscroll
font size
0
reset
how to read this tab
guitar tuner
Autoscroll
slow
fast
+/-
esc
set tempo
stop
Help us to improve Ultimate-Guitar.com Take our survey!
×
INTRO
GUITARRA:

E|----------------------------------|
B|----------------------------------|
G|----------------------------------| x4
D|-------------0--------------------|
A|---------0-2---1-----------0-(1)~-|
E|-0-0-3-0---------0-0-0-3-0--------|

VERSO 1
GUITARRA:

E|-----7------5-|
B|-----7------5-|
G|-9-x-9--7-x-7-| X2
D|-9-x-9--7-x-7-|
A|-7-x-7--5-x-5-|
E|--------------|

LETRA:

  MI              RE
 Muy buenas noches bienbenidos al show
  MI              RE
 hoy les prometo un poco de felicidad , ja ja ja

(REPITE INTRO) X2

VERSO 2
GUITARRA (IGUAL QUE EL VERSO 1)

LETRA :

  MI              RE
 Pasen y vean el rostro del diablo
  MI              RE
 detras de las puertas aguarda con satisfaccion

(REPITE INTRO) X2

ESTRIBILLO 1
GUITARRA :

E|-----7------3-|
B|-----7------3-|
G|-9-x-9--5-x-5-|
D|-9-x-9--5-x-5-|
A|-7-x-7--3-x-3-|
E|--------------|

LETRA :

 MI          DO
 Repite como un charlatan
 MI          DO
 lo mismo que dijo ayer
 MI           DO
 siempre promete que va e revelar
 MI                        DO
 la gloria de la miseria y de la oscuridad

(REPITE INTRO) X2

INTERMEDIO
GUITARRA :

E|----------------------------------|
B|----------------------------------|
G|-------------0--------------------|
D|---------0-2---1-----------0-(1)~-|
A|-0-0-3-0---------0-0-0-3-0--------|
E|----------------------------------|

LETRA :

 RE
 Dejen sus miedos atras
 RE
 pasen y vean de cerca la bestialidad

(REPITE INTRO) X2

ESTRIBILLO 2
GUITARRA : (IGUAL QUE ESTRIBILLO 1)

LETRA :

 MI            DO
 Como una araña en su red
 MI            DO
 espera que caigas alli
 MI             DO
 de las miserias es todo un gourmet
 MI                    D0
 sabe mentir y sobre todoo sabe ser cruel

(REPITE INTRO) X2

SOLO
GUITARRA :

E|-------------------|----------|-------------------|----------|
B|-15b-15b-15b-(16)~-|----------|-15b-15b-15b-(13)~-|----------|
G|-14b-14b-14b-(15)~-|----------|-14b-14b-14b-(12)~-|----------| X5
D|-------------------|----------|-------------------|----------|
A|-------------------|-0-3-5----|-------------------|-0-3-5----|
E|-------------------|-------0x-|-------------------|-------0x-|

E|----------------------------------|----------------------------|
B|----------------------------------|----------------------------|
G|-------------0--------------------|-------------0--------------|
D|---------0-2---1-----------0-(1)~-|---------0-2---1------------|
A|-0-0-3-0---------0-0-0-3-0--------|-0-0-3-0-----------1---0----|
E|----------------------------------|-----------------3---2---0X-|

E|-------------------|----------|-------------------|----------|
B|-15b-15b-15b-(16)~-|----------|-15b-15b-15b-(13)~-|----------|
G|-14b-14b-14b-(15)~-|----------|-14b-14b-14b-(12)~-|----------|
D|-------------------|----------|-------------------|----------|
A|-------------------|-0-3-5----|-------------------|-0-3-5----|
E|-------------------|-------0x-|-------------------|-------0x-|

ESTRIBILLO 3
GUITARRA : (IGUAL QUE EL ESTRIBILLO 1)

LETRA :

 MI         DO
 Repite como un charlatan
 MI          DO
 lo mismo que dijo ayer
 MI              DO
 siempre promete que va a revelar
 MI                     DO
 la gloria de la miseria y la oscuridad

REPITE INTRO

E|----------------------------------|  |-----------------|
B|----------------------------------|  |-----------------|
G|----------------------------------|X2|-----------------|X3
D|-------------0--------------------|  |-------------0---|
A|---------0-2---1-----------0-(1)~-|  |---------0-2---1-|
E|-0-0-3-0---------0-0-0-3-0--------|  |-0-0-3-0---------|

FINAL EN RE

    FIN.
Suggest correction
Give kudos to tab author, rate the tab!
1 2 3 4 5
comments
print report bad tab
guest
You may want to rate the tab now too:
select rating
Wanna post a correction for this tab? Suggest correction