Oops, an error
Loading. Please wait.

El Gourmet Del Infierno Tab

version 3
version 3

Whole song

32 views 1 this week
no commentswrite comment
1 2 3 4 5
3 more votes to show rating
add to favorites
launch autoscroll
font size
0
reset
how to read this tab
guitar tuner
Autoscroll
slow
fast
+/-
esc
set tempo
stop
INTRO
GUITARRA:

E|--------------------------------|
B|--------------------------------|
G|--------------------------------| x4
D|-----------0--------------------|
A|-----0-1-2---2----------0-(1)~--|
E|-0-0-----------0--0-3-0---------|

VERSO 1


LETRA:

  MI              SIb
 Muy buenas noches bienbenidos al show
  MI              SIb
 hoy les prometo un poco de felicidad , yeah yeah yeah

(REPITE INTRO) X2

VERSO 2
GUITARRA (IGUAL QUE EL VERSO 1)

LETRA :

  MI              SIb
 Pasen y vean el rostro del diablo
  MI              SIb
 detras de las puertas aguarda con satisfaccion

(REPITE INTRO) X2

ESTRIBILLO 1
 (arpegiando los acordes)
LETRA :

 SI5          DO5
 Repite como un charlatan
 SI5          DO5
 lo mismo que dijo ayer
 SI5           DO5
 siempre promete que va e revelar
 SI5                        DO5
 la gloria de la miseria y de la oscuridad

(REPITE INTRO) X2

INTERMEDIO
GUITARRA :
Riff sobre La
E|----------------------------------|
B|----------------------------------|
G|-----------0----------------------| x 2 -- esto va mientras
D|-----0-1-2---2---------0-(1)~-----|       canta el intermedio
A|-0-0-----------0-0-3-0------------|
E|----------------------------------|

LETRA :

 Dejen sus miedos atras

 pasen y vean de cerca la bestialidad

(REPITE INTRO) X2

ESTRIBILLO 2
GUITARRA : (IGUAL QUE ESTRIBILLO 1)

LETRA :

 SI5            DO5
 Como una araña en su red
 SI5            DO5
 espera que caigas alli
 SI5             DO5
 de las miserias es todo un gourmet
 SI5                    D05
 sabe mentir y sobre todoo sabe ser cruel

(REPITE INTRO) X2

SOLO
GUITARRA :

E|---10--10--10-10-10b-|----------|-10--10--10-10--10b-|----------|
B|---10b-10b--8-10-10b-|----------|-10b-10b--8-10b--8b-|----------|
G|---------------------|----------|--------------------|----------|
D|---------------------|----------|--------------------|----------| x3
A|---------------------|-----7----|--------------------|-----7----|
E|---------------------|-7-10--0--|--------------------|-7-10--0--|

E|-------------------------------|--------------------------|
B|-------------------------------|--------------------------|
G|-----------0-------------------|-----------0--------------|
D|-----0-1-2---2---------0-(1)~--|-----0-1-2---2------------|
A|-0-0-----------0-0-3-0---------|-0-0-----------0--0--1-2--|
E|-------------------------------|-----------------3------0-|

E|---10--10--10-10-10b-|----------|-10--10--10-10--10b-|
B|---10b-10b--8-10-10b-|----------|-10b-10b--8-10b--8b-|
G|---------------------|----------|--------------------|
D|---------------------|----------|--------------------|
A|---------------------|-----7----|--------------------|
E|---------------------|-7-10--0--|--------------------|

ESTRIBILLO 3
GUITARRA : (IGUAL QUE EL ESTRIBILLO 1)
LETRA :

 SI5         DO5
 Repite como un charlatan
 SI5          DO5
 lo mismo que dijo ayer
 SI5              DO5
 siempre promete que va a revelar
 SI5                     DO5
 la gloria de la miseria y la oscuridad

REPITE INTRO

E|--------------------------------|    E|-------------|
B|--------------------------------|    B|-------------|
G|--------------------------------| x2 G|-------------|
D|-----------0--------------------|    D|--------0----|
A|-----0-1-2---2----------0-(1)~--|    A|--0-1-2---2--|
E|-0-0-----------0--0-3-0---------|    E|-0---------0-|


FINAL EN ESTE ACORDE QE NO SE CUAL ES..ES COMO UN MI9 MEDIO RARO

E|---X---|
B|---8---|
G|---7---|
D|---6---|
A|---7---|
E|---X---|

los MI y Sib de la estrofa los pueden hacer en cualquier lado...si lo
hacen tipo 5ta queda mejor...basta cnque le hagan un sonido medio
cortado

Buen..es mi primera transcripcion de este temazo de skay..me parece qe
asi suena mejor qe en las versiones anteriores...fijense no se..escuchen
bien el tema a ver qe onda.
saludos loco y califiqenme ehh jaja
Suggest correction
Give kudos to tab author, rate the tab!
1 2 3 4 5
comments
print report bad tab
guest
Wanna post a correction for this tab? Suggest correction