Oops, an error
Loading. Please wait.

El Viaje De Mary Tab

28 views 1 this week
no commentswrite comment
1 2 3 4 5
3 more votes to show rating
add to favorites
×
Save as Personal and add changes to this tab that will be seen only by you. Learn more ›
×
You can save this tab as Personal to edit and correct it or add notes. All changes will be seen only by you. Learn more »
save as personal
new!
launch autoscroll
font size
0
reset
how to read this tab
guitar tuner
Autoscroll
slow
fast
+/-
esc
set tempo
stop
Intro:

1|--------------------------------------------------------------------|
2|------------------------------------------------------------------3-|
3|------------------------------------------------------------------3-|
4|-------------2-------------------2----------------2-----------2-----|
5|-----------2-------------------2----------------2-------------------|
6|--0--3^4-0------0-3^4--0-3^4-0---------0--3^4-0------3^4-0--3-------|


1|----------------------------------------------------------------------|
2|------------------------------------------------------------------xxx-|
3|------------------------------------------------------------------xxx-|
4|-------------2-------------------2----------------2-----------2---xxx-|
5|-----------2-------------------2----------------2---------------------|
6|--0--3^4-0------0-3^4--0-3^4-0---------0--3^4-0------3^4-0--3---------|

Puente:
~
1|--0-----------------------------------0-0---------|
2|--0-----------------------------------0-0---------|
3|--9-9--9-9-9--9-9--9-9-9--9-9--9-9-9--9-9---------|por la cantidad
4|--9-9--8-8-8--9-9--8-8-8--9-9--8-8-8--9-9---------|de veces que sea
5|--7-7--7-7-7--7-7--7-7-7--7-7--7-7-7--7-7---------|necesario (jejeje)
6|--0-----------------------------------0-0-0-3-2-0-|

Mientras Canta:
1|--------------------------|
2|--------------------------|
3|------9-7---7-9---7---79--|
4|----9-----9-----9---9-----|
5|--7-----------------------|
6|--------------------------|
Otro año y la tierra empuja mas,
y sueños más pequeño en el rollo internacional.


Mientras el (¡huu hu u!):
1|-------------------------------------------------|
2|-------------------------------------------------|
3|-9-9-9-9-9--9-9--9-9-9--9-9--9-9-9--9-9----9-----|
4|-9-9-8-8-8--9-9--8-8-8--9-9--8-8-8--9-9-7-9------|
5|-7-7-7-7-7--7-7--7-7-7--7-7--7-7-7--7-7----------|
6|-------------------------------------------------|
¡Huu Hu u! ¡Huu Hu u!


Mientras Canta:
1|--------------------------|
2|--------------------------|
3|------9-7---7-9---7---79--|
4|----9-----9-----9---9-----|
5|--7-----------------------|
6|--------------------------|
Los ojos de mi amor cuando duerme cerca de mí,
cuentan la historia de sueño internacional.


1|-------------------------------------------------------------|
2|-----12-----12-----12-----12-----12--------------------------|
3|-14^----14^----14^----14^----14^----14^-12-------------------|X2
4|-------------------------------------------14---------------2|
5|-------------------------------------------14-------------2--|
6|-------------------------------------------------0--3^4-0----|

1|----------------------------------------------------------------------|
2|-----------------12----------------------------15---------------------|
3|-14^-14^--12-14^---------------14^-14^--12-14^----12------------------|
4|----------------------------------------------------------------------|
5|--------------------2-----2---------------------------2-----2---------|
6|--------------------0-2-3-0---------------------------0-2-3-0---------|


Mary Mary no mueras en vano, Mary vive para mi
Mary Mary quédate conmigo, vive Mary para mi

1|--5-5/7-7-----------------|
2|--5-5/7-7-----------------|
3|--------------------------|
4|--------------------------|
5|--------------------------|
6|--------------------------|

1|-------------------------------------------------------------|
2|-----12-----12-----12-----12-----12--------------------------|
3|-14^----14^----14^----14^----14^----14^-12-------------------|X2
4|-------------------------------------------14---------------2|
5|-------------------------------------------14-------------2--|
6|-------------------------------------------------0--3^4-0----|


1|--------------------------|
2|--------------------------|
3|-2^--0-----12/------------|
4|-------2---12/------------|
5|-----------10/------------|
6|--------------------------|


el resto lo sacan ustedes, esta en E
Saludos desde Puerto Madryn (ezequiel Valdéz)
Suggest correction
Give kudos to tab author, rate the tab!
1 2 3 4 5
comments
print report bad tab
guest
Wanna post a correction for this tab? Suggest correction