Oops, an error
Loading. Please wait.

Entre El Cielo Y La Tierra Tab

version 2
version 2

Whole song

66 views 1 this week
no commentswrite comment
1 2 3 4 5
3 more votes to show rating
add to favorites
launch autoscroll
font size
0
reset
how to read this tab
guitar tuner
×
Best way to learn
"Entre El Cielo Y La Tierra"
Autoscroll
slow
fast
+/-
esc
set tempo
stop
Esta no es una correción, sino q le agregue mas partes para q quede mejor.
 
    1°  2°  3°
     
1|---3---3---3---|
2|---3---5---3---|
3|---4---4---4---|
4|--(5)-(3)-(3)--|
5|--(5)-(5)-(5)--|
6|--(3)-(3)-(3)--|
  
(van alternando entre estos dos acordes asi queda parecida a la canción)

                                                    
1|-------------------|------------------------|----[5]--5>7-7-5-3~--|
2|-------------------|------------------------|---[5]---5>7-7-5-3~--|
3|-------------------|------------------------|--[6]----------------|
4|--12x[6]-10-10-9~--|--9x[6]-7-7-7>10>9------|---------------------|
5|-------------------|-------------------10~--|---------------------|
6|-------------------|------------------------|---------------------|
          x 2 				      [arpegiado]
					      


      01:04              01:15        01:31

1|------------------|------7-----5~--|-----7~--|
2|------------------|----------------|---------|
3|----------4h7-4~--|--5>7---7-5-----|---7-----|
4|------5h7---------|----------------|---------|
5|--5h7-------------|----------------|---------|
       

SOLO
----

 02:17

1|----8~------10h12--12-----12-10-8-8p7-----3~-----------7-----5-7-8-8-8-8-7-4--------8-10-7-10--5-7-8-8-8-8-7-9----9>12-----12-----12------------------------7--9----9------------------------|


1|----5-----7------3~--| 
2|--5---5>7---77-3--|---------------|-----------5>7--|
2|-----------------|---------------|-------8--------|
3|--4-5>7----------|----5^p4-------|----->9-9-------|
4|-----------------|---------5-----|----------------|


El Bajo hace mas o menos esto en casi toda la cancion

5|--5~--5h7-5--| ó 5|--5~--577-5--| y 6|--3~--3553--|


Aca está el tema completo.
Los q esten interesados en forma una banda mi mail figura arriba. (zona Caballito)
Suggest correction
Give kudos to tab author, rate the tab!
1 2 3 4 5
comments
print report bad tab
guest
You may want to rate the tab now too:
select rating
Wanna post a correction for this tab? Suggest correction