Oops, an error
Loading. Please wait.

Flores Secas Tab

version 1
version 1

Whole song

34 views 1 this week
no commentswrite comment
1 2 3 4 5
3 more votes to show rating
add to favorites
launch autoscroll
font size
0
reset
how to read this tab
guitar tuner
×
Best way to learn
"Flores Secas"
Autoscroll
slow
fast
+/-
esc
set tempo
stop
Agrego un par de cosas a este temaso

en la intro hace:

 e (1º)-7-7-7-7-7-7-4-4-5-7-4
repite 2 veces y arranca Mi haciendo muting)

Solo

 g -9-9-9-8-8-7------------------9-  Repite 2 veces
 d -------------9-7--6-7-6-6-9-9---

despues repite la primera parte y sigue:


  b -----------------------------------------17-17-17-17-
  g -9-9-9-8-8-7-7/8-8-11-11/13-13-14/16-16--------------

  b -15-15-15-14---------------17--17-15-17--15-15-15-14-14-14-17-
  g -------------16-14-13-14-----------------------------------16-
  d -------------------------14>>>---------------------------------

Despues toca el bajo y la bateria solamente, 2 tiempos, y arranca:

  g -(6)b7b6b7-6-------------(6)b7b6b7-6--------------
  d -------------9-7-6-7/9---------------9-7-6-7/9-6~-
  a -----------------------7~-------------------------

  g ----------4-6/7--7-6-7-7/9-6-------------------------------
  d -5-5-5-5---------------------7~--5-5-5-5-4-----------------
  a -------------------------------------------7-5-5-5-5-4-2-0-

Y termina en MI, dps sgigue con los acordes q ya subieron, q estan bien.

Aclaraciones:
g-(6)b7b6b7 quiere decir, q en la cuerda g, en el traste 6, se empieza
tocando un bend hasta q suena como traste 7, se baja a 6 y se vuelve a
a estirar a 7
/:slide
~:vibrato
>>: prolongar la nota hasta el ultimo >

Salu2 Y aguante Skay!!!


Para vos, ya 2 meses!!
Suggest correction
Give kudos to tab author, rate the tab!
1 2 3 4 5
comments
print report bad tab
guest
You may want to rate the tab now too:
select rating
Wanna post a correction for this tab? Suggest correction