Oops, an error
Loading. Please wait.

Hippie Jay Jou Tab

26 views 1 this week
no commentswrite comment
1 2 3 4 5
3 more votes to show rating
add to favorites
×
Save as Personal and add changes to this tab that will be seen only by you. Learn more ›
×
You can save this tab as Personal to edit and correct it or add notes. All changes will be seen only by you. Learn more »
save as personal
new!
launch autoscroll
font size
0
reset
how to read this tab
guitar tuner
Autoscroll
slow
fast
+/-
esc
set tempo
stop
riff
1------------------------------------------
2------------------------------------------
3------------------------------------------
4---5-5------------------------------------
5-------7---5-7------5-7-7-----------------
6---------7------5-7--------5-3-5-3-5-3-0--

MIm
En una mano la trampa, en la otra el dardo y la red.

riff x2

MIm
Voy a cazar sortilegios y liberarlos despues.

riff x2

despues del riff hace estos acordes
1--------------------------
2--5----4----5----4--------
3--4----3----4----3--------
4--5----4----5----4--------
5--4----3----4----3--------
6--------------------------

riff x4
Hippie jay jou

   FA#m
1-------------------------------------------------
2-------------------------------5-----------------
3---4-4-2-4-2--------2~4-2--4~6---4---------------
4-------------4--2~4----------------7-4-----------
5-------------------------------------------------
6-------------------------------------------------

   LAm
1-------------------------------------------------
2-------------------------------------------------
3--5-7-7-5-7-5---7~-5-----7--5--------------------
4--------------7------7~5------7-5-7--------------
5------------------------------------7------------
6-------------------------------------------------

  FA#m
1-------------------------------------------------
2-------------------------------5-----------------
3--2-4-4-2-4-2---4~2-----4--4~6---4-7-5-----------
4--------------4-----4~2----------------7---------
5-------------------------------------------------
6-------------------------------------------------

MIm
Hippie jey
Hippie jay jou
Hippie jey
Hippie jay jou

aca el riff lo sube un tono
1-----------------------------------------
2-----------------------------------------
3-----------------------------------------
4--7-7------------------------------------
5------9-------------7-9-9----------------
6--------9-7-9-9-7-9-------7-5-7-5-7-5-2--

final
1-----------------------------
2-----------------------------
3-----------------------------
4-----------------------------
5------2----------------------
6--2-5---5-2------------------
Suggest correction
Give kudos to tab author, rate the tab!
1 2 3 4 5
comments
print report bad tab
guest
Wanna post a correction for this tab? Suggest correction