Oops, an error
Loading. Please wait.

La Doble Marca Tab

version 2
version 2

Whole song

17 views 3 this week
no commentswrite comment
1 2 3 4 5
3 more votes to show rating
add to favorites
launch autoscroll
font size
0
reset
how to read this tab
guitar tuner
×
Best way to learn
"La Doble Marca"
Autoscroll
slow
fast
+/-
esc
set tempo
stop
FIJENSE CUANDO HACE PALM MUTE Y ALGUN QUE OTRO DETALLE,
NO HAY NADa MAS QUE DECIR. ES CUESTION DE ESCUCHAR UN
TOQUE. CREO QUE ESTA BIEN SACADO, NO ES MUY JODIDO.
ESPERO QUE SIRVA

   INTRO

e--------------------------------------------------
B----------------10(11)-8--------------------------
G-------------------------9------------------------
D--------------------------------------------------
A--------1-2------------------------1-2------------
E-0-3-0------0----------------0-3-0------0---------


   ESTROFA 1

e--------------------------------------------------
B------------------------------------10(11)-8------
G----------------------------------------------9---
D--------------------------------------------------
A-------1-2-----2---1-2--------0-------------------
E-0-3-0-----0-0---3------0-3-0---3-0---------------

e--------------------------------------------------
B--------------------------------------------------
G--------------------------------------------------
D--------------------------------------------------
A-------1-2-----2---1-2--------0-------------------
E-0-3-0-----0-0---3------0-3-0---3-0---------------

   SOLO 1

e-2-2-2-2-2-2-2-2-2-2-2-2--------------------------------------
B-2-2-2-2-2-2-2-2-2-2-2-2--------------------------------------
G-------------------------4(6)-2------------2------------------
D---------------------------------4-4---2-4---4-4-----2--------
A-------------------------------------------------2-4---2-4----
E-----------------------------------------------------------5-2


   ESTROFA 2

e--------------------------------------------------
B--------------------------------------------------
G--------------------------------------------------
D--------------------------------------------------
A-------1-2-----2---1-2--------0-------------------
E-0-3-0-----0-0---3------0-3-0---3-0---------------


   PUENTE

e-------------------------------------------------------
B-------------------------------------------------------
G-------------------------------------------------------
D-------------------------------------------------------
A------------1-2-----2---1-2--------0-------------------
E--12/0-3-0-----0-0---3------0-3-0---3-0---3-2-1--------

e-------------------------------------------------------
B-------------------------------------------------------
G-------------------------------------------------------
D-------------------------------------------------------
A--------1-2-----2---1-2--------0-----------------------
E--0-3-0-----0-0---3------0-3-0---3-0---3-2-1-----------

   ESTROFA 3

e-------------------------------------------------------
B-------------------------------------------------------
G---------------------------------------7(8)-5----------
D----------------------------------------------7--------
A-------3-4-----4---3-4--------2------------------------
E-2-5-2-----2-2---5------2-5-2---5-2--------------------

e-------------------------------------------------------
B-------------------------------------------------------
G-------------------------------------------------------
D-------------------------------------------------------
A-------3-4-----4---3-4--------2------------------------
E-2-5-2-----2-2---5------2-5-2---5-2--------------------
   PUENTE 2

e--------------------------------------
B--------------------------------------
G------------------------------9-------
D---7-7------7-7------7-7------9-------
A---7-7------7-7------7-7------7-------
E---5-5------5-5------5-5--------------

e------------------------------------------------------------------
B------------------------------------------------------------------
G------------------------------------------------------------------
D------------------------------------------------------------------
A---7-6-------6-7---7-6--------6-7-----6-------6-------6-----------
E-5-----8-5-8-----5------8-5-8-----5-8---8-5-8---8-5-8---8-5-8-7-6-


   ESTROFA 4

e--------------------------------------------------
B--------------------------------------------------
G----------------------------------------7(9)-5----
D-----------------------------------------------7--
A-------6-7-----7---6-7-------5--------------------
E-5-8-5-----5-5---8-----5-8-5---8-5----------------

TIRANDO LA5 ENTREMEDIO EN LA ESTROFA


   PUENTE 3

e------------------------------------------------------------------
B------------------------------------------------------------------
G------------------------------------------------------------------
D------------------------------------------------------------------
A---7-6-------6-7---7-6--------6-7-----6-------6-------6-----------
E-5-----8-5-8-----5------8-5-8-----5-8---8-5-8---8-5-8---8-5-8-7-6-

e------------------------------------------------------------------
B------------------------------------------------------------------
G------------------------------------------------------------------
D------------------------------------------------------------------
A---5-4-------4-5---5-4--------4-5-----4-------4-------4-----------
E-3-----6-3-6-----3------6-3-6-----3-6---6-3-6---6-3-6---6-3-6-5-4-

e------------------------------------------------------------------
B------------------------------------------------------------------
G------------------------------------------------------------------
D------------------------------------------------------------------
A---7-6-------6-7---7-6--------6-7-----6-------6-------6-----------
E-5-----8-5-8-----5------8-5-8-----5-8---8-5-8---8-5-8---8-5-8-7-6-

e-------------------------------------
B-------------------------------------
G-------------------------------------
D-------------------------------------
A---9-8---------8-9---9-8---------8-9-
E-7-----10-8-10-----7-----10-7-10-----

e----------------------------------------
B----------------------------------------
G----------------------------------------
D----------------------------------------
A-----8---------8---------8--------------
E-7-10---10-7-10---10-7-10---10-7-10-9-8-

e------------------------------------------------------------------
B------------------------------------------------------------------
G------------------------------------------------------------------
D------------------------------------------------------------------
A---7-6-------6-7---7-6--------6-7-----6-------6-------6-----------
E-5-----8-5-8-----5------8-5-8-----5-8---8-5-8---8-5-8---8-5-8-7-6-


   FINAL

e--------------
B--------------
G--------------
D--7-----------
A----7---------
E------8-7-5---
Suggest correction
Give kudos to tab author, rate the tab!
1 2 3 4 5
comments
print report bad tab
guest
You may want to rate the tab now too:
select rating
Wanna post a correction for this tab? Suggest correction