Oops, an error
Loading. Please wait.

La Fiesta Del Karma Tab

46 views 1 this week
no commentswrite comment
1 2 3 4 5
3 more votes to show rating
add to favorites
launch autoscroll
font size
0
reset
how to read this tab
guitar tuner
×
Best way to learn
"La Fiesta Del Karma"
Autoscroll
slow
fast
+/-
esc
set tempo
stop
E||-3--------------------3-----------------3-
B||---6-5-3-3-5-6-5-3------6-5-3-6-5-3-------
G||------------------------------------5-4---
D||------------------------------------------
A||------------------------------------------
E||------------------------------------------

G
A veces no se muy bien
Si fue el diablo o si fue dios
Quien nos arrojó al vacío
En esta danza cósmica

Hey!

E||-3--------------------3-----------------3-
B||---6-5-3-3-5-6-5-3------6-5-3-6-5-3-------
G||------------------------------------5-4---
D||------------------------------------------
A||------------------------------------------
E||------------------------------------------

G                          G G G F G
No hay atajo ante la duda
G                          G G G F G
El misterio se hace aquí
G                          G G G F G
Se hace carne en cada uno
G                          G G F G
Y el misterio es existir...

Hey!


E||-3-----------------3-----3-------3-----------3-----------------3-
B||---6-5-3-6-5-3-------------6-5-3---6-5-3-------6-5-3-6-5-3-------
G||---------------5-4-----------------------------------------5-4---
D||-----------------------------------------------------------------
A||-----------------------------------------------------------------
E||-----------------------------------------------------------------

F C G

F C D

E||-3--------------------3-----------------3-
B||---6-5-3-3-5-6-5-3------6-5-3-6-5-3-------
G||------------------------------------5-4---
D||------------------------------------------
A||------------------------------------------
E||------------------------------------------


E||-3-------3--------------3------3------3--
B||---6-5-3---6-5-3--------3------3------3--
G||--------------------4h5----4h5----4h5----
D||-----------------------------------------
A||-----------------------------------------
E||-----------------------------------------
Suggest correction
Give kudos to tab author, rate the tab!
1 2 3 4 5
comments
print report bad tab
guest
You may want to rate the tab now too:
select rating
Wanna post a correction for this tab? Suggest correction