Oops, an error
Loading. Please wait.

La Ley Del Embudo Tab

version 1
version 1

Whole song

32 views 1 this week
no commentswrite comment
1 2 3 4 5
3 more votes to show rating
add to favorites
×
Save as Personal and add changes to this tab that will be seen only by you. Learn more ›
×
You can save this tab as Personal to edit and correct it or add notes. All changes will be seen only by you. Learn more »
save as personal
new!
launch autoscroll
font size
0
reset
how to read this tab
guitar tuner
Autoscroll
slow
fast
+/-
esc
set tempo
stop
    DO#m

 e---------------9--
 b---------9^-9-----
 g--9---6-----------
 d------------------
 a------------------
 E------------------


 e------------------(3)--
 b-----------------------
 g--9---6----6-5-4-3-2---
 d-----------6-5-4-3-0---
 a-----------4-3-2-1-0---
 E-----------------------
             Una viola hace los 5´s mientras otra
             corta en un Sol e--(3)

  En los versos

  Base en Dom# y un fraseo asi:

 e----------------------------
 b----------------------------
 g--9-9--6----9-9--11----9-9-6
 d----------------------------
 a----------------------------
 E----------------------------
  Y la bajada descendente con los 5´s y el arreglo.

 Estribo

 SOL#         LA
 Una ola que arrasa....
 SOL#         LA
 y te va a devorar...

 Vuelve al verso y se a va al 2º estribo

 SOL#         LA
 Una ola implacable....
 SOL#         SOL#
 te va a devorar...

 Ahi vuelve a hacer una bajada descentente pero ahora
 desde el Sol# hasta un Mi


 e----------0-------------
 b----------0-------------
 g----------1-------------
 d--6-5-4-2-2-------------
 a--6-5-4-2-2-------------
 E--4-3-2-1-0------------- Y sube lo mismo.


 Solo con escala Menor de Dom# o Mi mayor, repite verso
 y el 2º estribo y despues de la 2º bajada
 termina con Sol#.


  Aguante Skay y el rock!!!
  Facundo Madrid, Rosario 2005

  Un saludo especial a martin, que en el 2008 va a
  aprender bajo!!!!!
Suggest correction
Give kudos to tab author, rate the tab!
1 2 3 4 5
comments
print report bad tab
guest
Wanna post a correction for this tab? Suggest correction