Oops, an error
Loading. Please wait.

La Ley Del Embudo Tab

version 2
version 2

Whole song

40 views 3 this week
no commentswrite comment
1 2 3 4 5
3 more votes to show rating
add to favorites
×
Save as Personal and add changes to this tab that will be seen only by you. Learn more ›
×
You can save this tab as Personal to edit and correct it or add notes. All changes will be seen only by you. Learn more »
save as personal
new!
launch autoscroll
font size
0
reset
how to read this tab
guitar tuner
Autoscroll
slow
fast
+/-
esc
set tempo
stop
INTRO:
------

GUITARRA 1:

E|----------9~-|------|--------(3)|----|
B|-5----8br-9~-|-5----|-----------|----|
G|---6~--------|---6~-|-----------|-X2-|
D|-------------|------|-----------|----|
A|-------------|------|-----------|----|
E|-------------|------|-----------|----|

GUITARRA 2:

E|-------------|------|-----------|----|
B|-------------|------|-----------|----|
G|-------------|------|-6-5-4-3-2-|-X2-|
D|-------------|------|-6-5-4-3-2-|----|
A|-------------|------|-4-3-2-1-0-|----|
E|-------------|------|-----------|----|


1er VERSO:
---------

GUITARRA 1:

E|---------|---------|---------|--------(3)|----|
B|-5-5-----|-5-5-7~/-|-5-5-----|-----------|----|
G|-----6~/-|---------|-----6~/-|-----------|-X2-|
D|---------|---------|---------|-----------|----|
A|---------|---------|---------|-----------|----|
E|---------|---------|---------|-----------|----|

GUITARRA 2:

E|---------|---------|---------|-----------|----|
B|---------|---------|---------|-----------|----|
G|---------|---------|---------|-6-5-4-3-2-|-X2-|
D|---------|---------|---------|-6-5-4-3-2-|----|
A|---------|---------|---------|-4-3-2-1-0-|----|
E|---------|---------|---------|-----------|----|


  Qué pasó? qué fué pasó? cómo empezó?

  pregunto quién apuntó, quién disparó, quién golpeó?


1er ESTRIBILLO:
--------------

GUITARRA:
   SOL#   LA   SOL#     LA
E|-4-4-|-5-5-|-4-4-|-/5-5-5-5-|
B|-4-4-|-5-5-|-4-4-|-/5-5-5-5-|
G|-----|-----|-----|----------|
D|-----|-----|-----|----------|
A|-----|-----|-----|----------|
E|-----|-----|-----|----------|

SOL#               LA
  Una ola que arrasa
SOL#               LA
  y te va a decorar.


2do VERSO: (igual que en el 1er VERSO)
---------


  Yo no fuí, el dice que no, vos no estabas allí

  O acaso fuí yo?, tambien fuiste vos, lo mismo que aquel.


2do ESTRIBILLO:
--------------

GUITARRA:

E|-4-4-|-5-5-|-4-4-|
B|-4-4-|-5-5-|-4-4-|
G|-----|-----|-----|
D|-----|-----|-----|
A|-----|-----|-----|
E|-----|-----|-----|

SOL#               LA
  Una ola implacable
SOL#                LA
  que te va a devorar


INTERMEDIO:
----------

GUITARRA 1:

E|--------------|---------------|----|
B|--------------|---------------|----|
G|--------------|---------------|-X2-|
D|--------------|---------------|----|
A|--------------|---------------|----|
E|-4-3-2-1-(0)--|-0-1-2-3-(4)---|----|

GUITARRA 2:

E|--------------|-------------4-|
B|--------------|-------------4-|
G|--------------|---------------|
D|--------------|---------------|
A|--------------|---------------|
E|--------------|---------------|


SOLO DE GUITARRA:
----------------

GUITARRA:

E|------5----------------------7-5-----------|-----5-------------------
B|------5-7-5-------5-7-5-7/10-----7-5---5~--|-----5-7-5-7-5---5-------
G|-(5)~-5-----6---6--------------------7-----|-5-5-5---------7---6---6-
D|-(7)~---------4----------------------------|-7-7-----------------4---
A|-(7)~--------------------------------------|-7-7---------------------
E|-(5)~--------------------------------------|-5-5---------------------

E|------------7-5--------------|
B|-5-7-5-7/10-----7-5---5-(7)~-|
G|--------------------7--------|
D|-----------------------------|
A|-----------------------------|
E|-----------------------------|


3er ESTRIBILLO: (igual que en el 1er ESTRIBILLO)
--------------

SOL#              LA
  Una ola de fuego,
SOL#                LA
  que te va a devorar.


4to VERSO: (igual que en el 1er VERSO)
---------

 Qué pasó, nene qué te pasó, por qué estás así?

 acaso vas a gritar o vas a callar, dime qué vas a hacer?


4to ESTRIBILLO: (igual que en 1er ESTRIBILLO)
--------------

SOL#                LA
  Vas surfeando la ola
SOL#                      LA
  esa ola que te va a devorar.


GUITARRA 1:

E|-------------|-------------|-------------|-------------|--
B|-------------|-------------|-------------|-------------|--
G|-------------|-------------|-------------|-------------|--
D|-------------|-------------|-------------|-------------|--
A|-------------|-------------|-------------|-------------|--
E|-4-3-2-1-(0)-|-0-1-2-3-(4)-|-4-3-2-1-(0)-|-0-1-2-3-(4)-|--


GUITARRA 2:

E|-------------|-----------4-|-------------|-----------4-|--
B|-------------|-----------4-|-------------|-----------4-|--
G|-------------|-------------|-------------|-------------|--
D|-------------|-------------|-------------|-------------|--
A|-------------|-------------|-------------|-------------|--
E|-------------|-------------|-------------|-------------|--

GUITARRA 1:

E|-------------|-------------|-------------|----------5-5-|
B|-------------|-------------|-------------|----------5-5-|
G|-------------|-------------|-------------|----------6-6-|
D|-------------|-------------|-------------|----------7-7-|
A|-------------|-------------|-------------|----------7-7-|
E|-4-3-2-1-(0)-|-0-1-2-3-(4)-|-4-3-2-1-(0)-|----------5-5-|


GUITARRA 2:

E|-----------5-|-----------4-|-----------5-|-----6----5-5-|
B|-----------5-|-----------4-|-----------5-|-----6----5-5-|
G|-------------|-------------|-------------|----------6-6-|
D|-------------|-------------|-------------|----------7-7-|
A|-------------|-------------|-------------|----------7-7-|
E|-------------|-------------|-------------|----------5-5-|

FIN  XD
Suggest correction
Give kudos to tab author, rate the tab!
1 2 3 4 5
comments
print report bad tab
guest
Wanna post a correction for this tab? Suggest correction