Oops, an error
Loading. Please wait.

Lluvia Sobre Bagdad Tab

20 views 1 this week
no commentswrite comment
1 2 3 4 5
3 more votes to show rating
add to favorites
launch autoscroll
font size
0
reset
how to read this tab
guitar tuner
Autoscroll
slow
fast
+/-
esc
set tempo
stop
Help us to improve Ultimate-Guitar.com Take our survey!
×
En esta transcripcion les dejo el solo del final:

    A                    F                        Am
E|------------------------------------------------------------|
B|------------------------------------------------------------|
G|--7-5--7~-----7~-5-7~-5-7-----------------------------------|
D|-------------------------7--------5--------------------7~-5-|
A|------------------------------7-5---5--7-----------5-7------|
E|-----------------------------------------8-5~--5-8----------|

      Am                  F                    G
E|------------------------------------------------------------|
B|-3-1-3---1----3~-1-3-1-3-3~---1-0-1-0-1-0-------7--7~~------|
G|-------2-----------------------------------0-0--------------|
D|------------------------------------------------------------|
A|------------------------------------------------------------|
E|------------------------------------------------------------|


     C                  F                          C
E|---------------------------------------------------------8-|
B|--/s13-13-13-13~-13~-13~-------------------------------8---|
G|--------------------------10-9-10-9-10-9----------9-10-----|
D|-----------------------------------------10----10----------|
A|-----------------------------------------------------------|
E|-----------------------------------------------------------|


     C         Abº     Dbº      C
E|---8-8s10~--10-8-10s13-12-10-18~~------|
B|---------------------------------------|
G|---------------------------------------|
D|---------------------------------------|
A|---------------------------------------|
E|---------------------------------------|

    F                    C         C          Abº     Dbº         C
E|--1-0-1---1-0-1--3-3---3s/8~----12-13-12-13-------------------------|
B|--------------------------------------------13-8--------------------|
G|-------------------------------------------------10~-10-9-10s/12----|
D|-----------------------------------------------------------------10~|
A|--------------------------------------------------------------------|
E|--------------------------------------------------------------------|

        C                                       Abº     Dbº            C
E|--8-8s10--12-13-12~-10-8-10s12~--13-12-10-8-8--10~-8-8-8~--------------|
B|-----------------------------------------------------------------------|
G|---------------------------------------------------------10-9--------9~|
D|---------------------------------------------------------------10--10--|
A|-----------------------------------------------------------------10----|
E|-----------------------------------------------------------------------|

          C                   C
E|--------------------------------|--------------------------------|
B|---5-----3----6-------6---5-----|---5----3---6--------6---5------|
G|------------------4-------------|---------------4----------------|
D|--------------------------------|--------------------------------|
A|--------------------------------|--------------------------------|
E|--------------------------------|--------------------------------|

FIN.
Suggest correction
Give kudos to tab author, rate the tab!
1 2 3 4 5
comments
print report bad tab
guest
You may want to rate the tab now too:
select rating
Wanna post a correction for this tab? Suggest correction