Oops, an error
Loading. Please wait.

Los Caminos Del Viento Tab

24 views 1 this week
no commentswrite comment
1 2 3 4 5
3 more votes to show rating
add to favorites
launch autoscroll
font size
0
reset
how to read this tab
guitar tuner
Autoscroll
slow
fast
+/-
esc
set tempo
stop
Help us to improve Ultimate-Guitar.com Take our survey!
×
Intro

1º guitarra

E|-4-----5-----7-----5---|---4----5----7-----5-|
B|-5-----5-----5-----5---|---5----5----5-----5-|
G|-----------------------|---------------------| x2
D|-----------------------|---------------------|
A|-----------------------|---------------------|
E|-----------------------|---------------------|

2 guitarra

E|-----------------------|---------------------|
B|--------------------5--|-5-------------------|
G|----------------------4|---1~----------------| x2
D|-----------------------|---------------------|
A|-----------------------|---------------------|
E|-----------------------|---------------------|


   E             E4        A                E4
   Esa misma luna que se refleja en un charco

E|-4----------5------------9---------------7---|
B|-5----------5-----------10---------------7---|

E             E4               E
Es la misma que brilla en tus ojos

E|-4----------5------------4--------------12---|
B|-5----------5------------5--------------12---|


E             E4
Puede estar oculta
        A                E4
por las nubes de tormenta
E             E4               E
Puede un viento despejar el cielo.


    A5      C5        A5       C5      E
E|-----------------------------------------------|
B|-----------------------------------------------|
G|-----------------------------------------------|
D|-----------------------------------------------|
A|--0-0-----3~--------0-0------3~-2-0------------|
E|-------------------------------------4~-----0--|


    A5      C5        C5       G       E
E|-----------------------------------------------|
B|-----------------------------------------------|
G|-----------------------------------------------|
D|-----------------------------4h5-4-2-0-2~------|
A|--0-0-----3~--------3-3------------------------|
E|-----------------------------------------------|


E            D
Ese mismo viento
         E4            E
que puede apagar un fuego
E         D         E4           E
Puede reanimar la llama que agoniza
E            D           E4         E
Sopla como brisa en la mañana del estio
E           D     E4      E
Y poco después es un huracán.

    A5      C5        A5       C5      E
E|-----------------------------------------------|
B|-----------------------------------------------|
G|-----------------------------------------------|
D|-----------------------------------------------|
A|--0-0-----3~--------0-0------3~-2-0------------|
E|-------------------------------------4~-----0--|


    A5      C5        C5       G       E
E|-----------------------------------------------|
B|-----------------------------------------------|
G|-----------------------------------------------|
D|-----------------------------4h5-4-2-0-2~------|
A|--0-0-----3~--------3-3------------------------|
E|-----------------------------------------------|


Oscar Reyna (con slide)

    G          C          G             C   G4 G G4 G
E|---------------------------------------------|
B|---------------------------------------------|
G|-10/12~--14-16-14-16-17-19-17-16-14/16-14~---|
D|---------------------------------------------|
A|---------------------------------------------|
E|---------------------------------------------|

    G                               C
E|---------------------------------------------|
B|-20-20-20/17~--20-20-20/17-20--20-17-15/17---|
G|---------------------------------------------|
D|---------------------------------------------|
A|---------------------------------------------|
E|---------------------------------------------|

    G                        C
E|-------15--------13--------10--|-----------|
B|-15/17-----13/15-----10/12-----|--9--------|
G|-------------------------------|--9--------|
D|-------------------------------|-----------|
A|-------------------------------|-----------|
E|-------------------------------|-----------|


Somos esas nubes
que viajando con el viento
Vamos descubriendo su destino.
Somos como el rayo
que montado en la tormenta
Anticipa ya lo que vendrá.


Skay

    G          C                  G
E|-----------------------------------------
B|-----------------------------------------
G|-10/12~---------5-5-4-5/7----------------
D|---------------------------3-5-(5)-3-5~--
A|-----------------------------------------
E|-----------------------------------------


    C             G           C                  G
E|-------------------------------------------------
B|-------------------------------------------------
G|---5-5-5-4-5-7--10~-----9-7h9--5-4-5-7-----------
D|-------------------------------------------3-5-(5)
A|--------------------------------------------------
E|--------------------------------------------------


                  C
E|-----------------------------
B|-----------------------------
G|------------------5-4-5-(7)--
D|------------3/5---------------
A|--3-2-3-2--------------------
E|-----------------------------


DESPUES


   D
E|----------------------------------------
B|---------------------------7/8-8-8-(8)--
G|--4/5-5-4-2-0-4-0-2-(2)------------------
D|-----------------------------------------
A|------------------------------------------
E|------------------------------------------

   D
E|-------------------------------------------------------------
B|-13-(13)-13-13-10-10-8--7-8-10-(10)-7h8-(8)-7-5-------------
G|------------------------------------------------7-5-5-7-(7)--
D|-------------------------------------------------------------
A|-------------------------------------------------------------
E|--------------------------------------------------------------

Luego

    C          D
E|----------------|
B|----------------|
G|----------------|
D|----------------| x4
A|--3------3--(5)-|
E|-----5----------|


      D
E|-2--2-0-2--5-3-2--------2--2-0-5-3-2--------|
B|-3---------------(3)----3------------(3)----|
G|-2----------------------2-------------------|
D|-0----------------------0-------------------| x4
A|--------------------------------------------|
E|--------------------------------------------|


Solo final:

   F                       D
E|--------------------------------------------
B|---------------------------------------------
G|-(10)--------(10)-------------(10)-------------
D|-(10)--10-12------12-10-(12)--------x------------10--
A|--------------------------------------x--x-10-12----
E|--------------------------------------------


E|------------------------------------------------------
B|------13-----13-----13-----13-----13-----13---13-------
G|-12-14--12-14--12-14--12-14--12-14--12-14--12---14-12----
D|--- -----------------------------------------------------
A|--------------------------------------------------------
E|--------------------------------------------


E|------------------------------------------------------
B|----------------------13-----------------------
G|--12^-12-10----10-12^----12^-12-10-12^-10----------
D|------------12----------------------------12-(12)-
A|--------------------------------------------------------
E|--------------------------------------------


E|----------------------
B|---------------------
G|-------10-(12)-10----
D|-10-12-10-(12)-10----
A|-10-12---------------
E|---------------------


E|----20----20----20----------------
B|-20^---20^--20^-20-(efecto)----
G|-------------------------------
D|------------------------------
A|---------------------------------
E|----------------------------------


E|---------------------------------------------------------
B|--20^--20-18---------------------------------------------
G|-------------(19)~----19-17---19-17----------------------
D|----------------------------19------19-y sigue(rapido)-----
A|---------------------------------------------------------
E|-------------------------------------------------------


Fin..
Suggest correction
Give kudos to tab author, rate the tab!
1 2 3 4 5
comments
print report bad tab
guest
You may want to rate the tab now too:
select rating
Wanna post a correction for this tab? Suggest correction