Oops, an error
Loading. Please wait.

Memorias De Un Perro Mutante Tab

version 2
version 2

Whole song

21 views 1 this week
no commentswrite comment
1 2 3 4 5
3 more votes to show rating
add to favorites
launch autoscroll
font size
0
reset
how to read this tab
guitar tuner
Autoscroll
slow
fast
+/-
esc
set tempo
stop
Help us to improve Ultimate-Guitar.com Take our survey!
×
 Memorias de un Perro Mutante
-A Traves del Mar de los Sargazos-
(SKAY y los Seguidores de la Diosa Kali)

Intro:(x2)

|--3-33-x----3-6-3---|-3-33-----------|
|--3-33-x-66-3-6-3-6-|-3-33-33-53-----|
|---------55-------5-|------33-535----|
|--------------------|-----------5-5--|
|--------------------|-------------5--|
|--------------------|----------------|


-3-33-----3x----------|--------------------|
-3-33-66--3x--3-5-3---|--------------------|
------55------3-5-3-5-|-3h(5)55--3--53-----|
--------------------5-|-3h(5)55--35-53-5x5-|
----------------------|-----------5----5x5-|
----------------------|--------------------|


Punteo:

|--3---------|-3------------|-3---------|--------------------|
|----3-4-23~-|---3-4-23-----|---3-4-23~-|--------------------|
|------------|---------32-0-|-----------|-3h(5)55--3--53-----|
|------------|--------------|-----------|-3h(5)55--35-53-5x5-|
|------------|--------------|-----------|-----------5----5x5-|
|------------|--------------|-----------|--------------------|


G                                     Bb
Un cielo cubierto de ceniza y alquitrán
G
llora en esta guerra silenciosa.

(Punteo)

G
Hola! Hay alguien ahí?
Hay acaso algún sobreviviente?

(Punteo)

G          Bb
Ese microchip, anónimo y fatal,
G
sólo sos un número en su dieta.

(Punteo)

G
El mundo se está poniendo raro,
hubo olor a tigre esta mañana en la ciudad.


Solo:

|__________x2___________|

|------0****------------|------------------------------------|
|-0*---------0*---------|-3-33----33-3-----3-33----3/53/53---|
|-----------------0****-|-3-33-xx-33-3-----3-33-xx-3/53/53---|
|-----------------------|------xx---------------xx-----------|
|-----------------------|------xx---------------xx-----------|
|-----------------------|------------------------------------|


--------------------------------------|
--3-33----33-3------3-33-----3/53-----|
--3-33-xx-33-3------3-33-xx--3/53-5---|
-------xx----------------xx--------55-|
-------xx----------------xx---------5-|
--------------------------------------|

[ * =palanca ]


[Repite Intro x1]


G                          Bb
Nada por aquí, mucho por allá,
G
un truco de magia bien pensado.


(Punteo)

G
El caballo negro de la noche
corre al galope en la tormenta igual que vos


(Punteo hasta el fin)


elpupi666@
Suggest correction
Give kudos to tab author, rate the tab!
1 2 3 4 5
comments
print report bad tab
guest
You may want to rate the tab now too:
select rating
Wanna post a correction for this tab? Suggest correction