Oops, an error
Loading. Please wait.

Meroe Y Los Sortilegios Tab

10 views 1 this week
no commentswrite comment
1 2 3 4 5
3 more votes to show rating
add to favorites
launch autoscroll
font size
0
reset
how to read this tab
guitar tuner
Autoscroll
slow
fast
+/-
esc
set tempo
stop
Help us to improve Ultimate-Guitar.com Take our survey!
×
Intro:

E |------------------------------------------------|
B |------------------------------------------------|
G |------------------------------------------------|
D |------------------------------------------------|
A |------------------------------------------------|
E |-0--0------0--0------0--0-------0--0-----0--0---|


Oscar Reyna (Con Slide)

E|-------------------------|------------------------------------------
B|-9/-12--7--9-(9)---9-(7)-|----3-------3----------------3/(5)--8-(5)-
G|-9/-12--7--9-(9)---9-(7)-|-2/4---2-2/4--2-2/4---2-2^-0--------------
D|-9/-12--7--9-(9)---9-(7)-|-----------------------------------------
A|-------------------------|------------------------------------------
E|-------------------------|------------------------------------------


Entra bateria


(A- G - E*)


* Parte de E

E |--------------------------------|
B |--------------------------------|
G |--------------------------------|
D |--2--------0----2--------0------|
A |--2----0-2------2----0-2--------|
E |--0-------------0---------------|


E
Me trozabas, me comías
Y yo me dejaba hacer

E |-----------------|
B |------3----------|
G |--2-4---4-2-1----|
D |--------------2--|
A |-----------------|
E |-----------------|

Me envolvías en tu pelo
Hasta perderme en tu piel


A     G      E
Soplando en mi boca
A   G      E
Palabras de ayer


E
Dominado por tu hechizo
En tu hoguera me quemé
En tus fuegos, fatuos fuegos
A LA muerte desafié

A     G      E
Espejos tus ojos
A     G      E
Donde me miré.

Solo 1

E |-----------------------------------------|
B |-------(6)-------(6)-------(6)-----------|
G |-4-5-7-----4-5-7-----4-5-7------5-4------|
D |------------------------------------(5)--| x2
A |-----------------------------------------|
E |-----------------------------------------|

E
Eras como un espejismo
Que no me dejaba ver
Pero un día te perdiste
Y en tinieblas me quedé

A     G      E
No se si fue un sueño
A     G      E
Tal vez realidad.


Solo 2

E |------------------------|---------------------------------|
B |------------------------|---------------------------------|
G |-4-5-7-10~----4-5-7-10~-|--0-4-0-5-0-4-0-7-0-5-0-4---(x4)-|
D |------------------------|---------------------------------|
A |------------------------|---------------------------------|
E |------------------------|---------------------------------|


E |-0------------------0-0--------------------|
B |-0-------3----------0-0----------8---------|
G |-1---2/4---2^0------1-1--------7---9-7-9~--|
D |-2-------------2-0--2------7-9-------------|
A |-2------------------2----------------------|
E |-0------------------0----------------------|


A G E - A G (G - F#) E


E |---------------|
B |---------------|
G |-1-2-4-7~~~-----|
D |---------------|
A |---------------|
E |---------------|


Fin.


Espero que se entienda. Saludos.
Suggest correction
Give kudos to tab author, rate the tab!
1 2 3 4 5
comments
print report bad tab
guest
You may want to rate the tab now too:
select rating
Wanna post a correction for this tab? Suggest correction