Oops, an error
Loading. Please wait.

Nene Nena Tab

32 views 1 this week
no commentswrite comment
1 2 3 4 5
3 more votes to show rating
add to favorites
launch autoscroll
font size
0
reset
how to read this tab
guitar tuner
×
Best way to learn
"Nene Nena"
Autoscroll
slow
fast
+/-
esc
set tempo
stop
Intro

E|---------10--10-8--10--10-10-8--10-10-8--x-13--|
B|---------10--10-8--10--10-10-8--10-10-8--x-13--|
G|-----------------------------------------------| x2
D|--------------------------------~--------------|
A|-----------------------------------------------|
E|-1/13/1----------------------------------------|

                              Dm
Vamos nene nena acercate a él
                                F
quiere que le paguen jubilación
                                 Dm
por todos los años en que aportó
                                 F
en la pobre casa del rock & roll

             F
Y lo fajaron
                   F
tanto que se arrugó
             F
y lo molieron
                   F E
tanto que se murió


E|-10--10-8--10--10-10-8--10-10-8--x-13--|
B|-10--10-8--10--10-10-8--10-10-8--x-13--|
G|---------------------------------------|
D|------------------------~--------------|
A|---------------------------------------|
E|---------------------------------------|

  Nene nena vamos nene nena, nene nena oh!

E|-10--10-8--10--10-10-8--10-10-8--x-13--|
B|-10--10-8--10--10-10-8--10-10-8--x-13--|
G|---------------------------------------|
D|------------------------~--------------|
A|---------------------------------------|
E|---------------------------------------|


Inter: F C D# D -  Bb F G Bb  x2


E|---------10--10-8--10--10-10-8--10-10-8--x-13--|
B|---------10--10-8--10--10-10-8--10-10-8--x-13--|
G|-----------------------------------------------| x2
D|--------------------------------~--------------|
A|-----------------------------------------------|
E|-1/13/1----------------------------------------|


                                  Dm
Por veinte dineros viste New Wave
                            F
lo banca la casa música pop
                             Dm
y una muy lujosa publicación
                               F
con alternativas de información


             F
Y lo fajaron
                   F
tanto que se arrugó
             F
y lo molieron
                   F E
tanto que se murió


E|-10--10-8--10--10-10-8--10-10-8--x-13--|
B|-10--10-8--10--10-10-8--10-10-8--x-13--|
G|---------------------------------------|
D|------------------------~--------------|
A|---------------------------------------|
E|---------------------------------------|

  Nene nena vamos nene nena nene nena oh!

E|-10--10-8--10--10-10-8--10-10-8--x-13--|
B|-10--10-8--10--10-10-8--10-10-8--x-13--|
G|---------------------------------------|
D|------------------------~--------------|
A|---------------------------------------|
E|---------------------------------------|


Inter: F C D# D -  Bb F G Bb  x2

Solo:

E|------------------------------------|
B|------------------13----------------|
G|-10-10~--------12----12-10-12-10----|
D|-10-10~--12---------------------12~-|
A|---------12-------------------------|
E|------------------------------------|

E|---------------------------------------------|
B|--13/15-13-----------------------------------|
G|-----------14-12-10---10-12h12-10--10-12-10--|
D|-------------------12------------12--------12|
A|---------------------------------------------|
E|---------------------------------------------|

E|-----------------|--------------------------------|
B|-----------------|15-15h-13-15~-15-15h-13-15~--15-15h-13-15-13----|
G|--10-12h12-10----|--------------------------------------------14~~|
D|12-----------12~-|------------------------------------------------|
A|-----------------|------------------------------------------------|
E|-----------------|------------------------------------------------|


E|----------------------------------------------------|
B|----------------------------------------------------|
G|-12-12h-10-12~--12-12h-10-12~---12-12h-10-12-10-----|
D|-12-12h-10-12~--12-12h-10-12~---12-12h-10-12-10-12~-|
A|------------------------------------------------12~-|
E|----------------------------------------------------|

E|---------------------------------------------------------|
B|---------------------------------------------------------|
G|---------------------------------------------------------|
D|--3--2------------3--2-----------3--2-----~--------------|
A|--3--2------------3--2-----------3--2--------------------|
E|--1--0------------1--0-----------1--0-------1-s13-s1-----|


E|-10--10-8--10--10-10-8--10-10-8--x-13--|
B|-10--10-8--10--10-10-8--10-10-8--x-13--|
G|---------------------------------------| x2
D|------------------------~--------------|
A|---------------------------------------|
E|---------------------------------------|


                              Dm
Vamos nene nena acercate a él
                                F
quiere que le paguen jubilación
                                 Dm
por todos los años en que aportó
                                 F
en la pobre casa del rock & roll


             F
Y lo fajaron
                   F
tanto que se arrugó
             F
y lo molieron
                   F-E
tanto que se murió


E|-10--10-8--10--10-10-8--10-10-8--x-13--|
B|-10--10-8--10--10-10-8--10-10-8--x-13--|
G|---------------------------------------|
D|------------------------~--------------|
A|---------------------------------------|
E|---------------------------------------|

  Nene nena vamos nene nena nene nena oh!

E|-10--10-8--10--10-10-8--10-10-8--x-13--|
B|-10--10-8--10--10-10-8--10-10-8--x-13--|
G|---------------------------------------|
D|------------------------~--------------|
A|---------------------------------------|
E|---------------------------------------|


Final:  F C D# D -  Bb F G Bb - Dm
Suggest correction
Give kudos to tab author, rate the tab!
1 2 3 4 5
comments
print report bad tab
guest
You may want to rate the tab now too:
select rating
Wanna post a correction for this tab? Suggest correction