Oops, an error
Loading. Please wait.

Nuestro Amo Juega Al Esclavo Tab

77 views 1 this week
no commentswrite comment
1 2 3 4 5
3 more votes to show rating
add to favorites
×
Save as Personal and add changes to this tab that will be seen only by you. Learn more ›
launch autoscroll
font size
0
reset
how to read this tab
guitar tuner
Autoscroll
slow
fast
+/-
esc
set tempo
stop
INTRO: E

E|--------4-----4---4-7~---7-4---4--------------|
B|--5---5---5~----5------------5---5---5-5-5----|
G|----4------------------------------4-------4~-|
D|---------------------------------------------~|
A|----------------------------------------------|
E|----------------------------------------------|

E|----4---4-------4-4---7-4---4--------|
B|--5---5---5---5-----------5---5---5~-|
G|------------4-------------------4----|
D|-------------------------------------|
A|-------------------------------------|
E|-------------------------------------|


C#m
Mucha tropa riendo en las calles
C#m
con sus muecas rotas cromadas
C#m
y por las carreteras valladas
C#m
escuchás caer tus lagrimas

E|--------4-----4----------4-----------------------------|
B|--5---5---5~----5-3-5~-----5-3-------------------------|
G|----4--------------------------4-2-0-2-0-------0-------|
D|-----------------------------------------2-0-2---2-0-2~|
A|-------------------------------------------------------|
E|-------------------------------------------------------|

C#m
Nuestro amo juega al esclavo
C#m
de esta tierra que es una herida
C#m
que se abre todos los dias
C#m                       B
a pura muerte, a todo gramo

A
violencia es mentir


     E           E       E            E
E|-------------------------------------------7~-|
B|--5-5-5-5-5--3-5-5-5-5--3-5-5-5-5-5--6-5-3----|
G|----------------------------------------------| x4
D|----------------------------------------------|
A|----------------------------------------------|
E|----------------------------------------------|

     D              E
E|---------------/-7--------------------------|
B|-------7-------/-9--10-8--------------------|
G|--(7)----7-----/-9-------9-7----------------|
D|--(7)------7---/-9-----------9-7------------|
A|--(5)----------------------------10-7----7~-|
E|--------------------------------------10----|

    Bm          A       E x4        Bm       A   E x4
E|-------------------|-------|-----------------|-------|
B|------3------------|-------|-------3---------|-------|
G|--------4-------2--|--1-1--|-----4-------2---|--1-1--|
D|----4---------2----|--2-2--|---4-------2-----|--2-2--| x2
A|--2---------0------|--2-2--|-2-------0-------|--2-2--|
E|-------------------|--0-0--|-----------------|--0-0--|

C#m
Formidables guerreros en jeeps
C#m
los titanes del orden viril,
C#m
que botines esperan ganar?
C#m
si nunca un perro mira el cielo

E|--------4-----4----------4-----------------------------|
B|--5---5---5~----5-3-5~-----5-3-------------------------|
G|----4--------------------------4-2-0-2-0-------0-------|
D|-----------------------------------------2-0-2---2-0-2~|
A|-------------------------------------------------------|
E|-------------------------------------------------------|

C#m
Si hace falta hundir la nariz
C#m
en el plato lo vamos a hacer
C#m
por los tipos que huelen a tigre
C#m                     B
tan soberbios y despiadados

A
violencia es mentir

      E          E       E         E
E|-------------------------------------------7~-|
B|--5-5-5-5-5--3-5-5-5-5--3-5-5-5-5-5--6-5-3----|
G|----------------------------------------------| x4
D|----------------------------------------------|
A|----------------------------------------------|
E|----------------------------------------------|

   D                    E
E|---------------/-7--------------------------|
B|-------7-------/-9--10-8--------------------|
G|--(7)----7-----/-9-------9-7----------------|
D|--(7)------7---/-9-----------9-7------------|
A|--(5)----------------------------10-7----7~-|
E|--------------------------------------10----|

    Bm          A       E x4        Bm       A   E x4
E|-------------------|-------|-----------------|-------|
B|------3------------|-------|-------3---------|-------|
G|--------4-------2--|--1-1--|-----4-------2---|--1-1--|
D|----4---------2----|--2-2--|---4-------2-----|--2-2--| x2
A|--2---------0------|--2-2--|-2-------0-------|--2-2--|
E|-------------------|--0-0--|-----------------|--0-0--|

Fin.
Suggest correction
Give kudos to tab author, rate the tab!
1 2 3 4 5
comments
print report bad tab
guest
You may want to rate the tab now too:
select rating
Wanna post a correction for this tab? Suggest correction