Oops, an error
Loading. Please wait.

Oda A La Sin Nombre Tab

version 1
version 1

Whole song

209 views 3 this week
no commentswrite comment
1 2 3 4 5
3 more votes to show rating
add to favorites
×
Save as Personal and add changes to this tab that will be seen only by you. Learn more ›
×
You can save this tab as Personal to edit and correct it or add notes. All changes will be seen only by you. Learn more »
save as personal
new!
launch autoscroll
font size
0
reset
how to read this tab
guitar tuner
Autoscroll
slow
fast
+/-
esc
set tempo
stop
INTRO:

Guitarra 1: Eduardo 'Skay' Beilinson
      LA           SI            MI                 LA         SI             MI
e|------------|-----------|-----------------|------------|----------|-7-----7---------|
B|------------|-------9~--|----7------------|------------|-------9~-|---9-----9-------|
G|-------9~---|-----------|------9-7--------|-------9~---|----------|-----9-----(9)---|
D|-6-7-9------|-6-7-9-----|-----------------|-6-7-9------|-6-7-9----|-----------------|
A|------------|-----------|-----------------|------------|----------|-----------------|
E|------------|-----------|-----------------|------------|----------|-----------------|

Guitarra 2:
       LA           SI           MI               LA         SI         MI
e|----5-5-x-5-5-|---7-x-7-x-|---7-x-7-x-(7)-7-|----5-5-x-5-5-|---7-x-7-|---7-x-7-x-(7)-7-|
B|----5-5-x-5-5-|---7-x-7-x-|---9-x-9-x-(9)-9-|----5-5-x-5-5-|---7-x-7-|---9-x-9-x-(9)-9-|
G|----6-6-x-6-6-|---8-x-8-x-|---9-x-9-x-(9)-9-|----6-6-x-6-6-|---8-x-8-|---9-x-9-x-(9)-9-|
D|----7-7-x-7-7-|---9-x-9-x-|---9-x-9-x-(9)-9-|----7-7-x-7-7-|---9-x-9-|---9-x-9-x-(9)-9-|
A|--------------|-----------|-----------------|--------------|---------|-----------------|
E|--------------|-----------|-----------------|--------------|---------|-----------------|

despues...

Guitarra 1: Eduardo 'Skay' Beilinson

e|--------------------------------|-----(0)------|--|
B|-5-5--4-4--2-2--0-0--2-2--4--2/-|-----(0)------|--|
G|-4-4--4-4--2-2--1-1--2-2--4--2/-|-----(1)------|x2|
D|--------------------------------|-----(2)------|--|
A|--------------------------------|-(2)----------|--|
E|--------------------------------|-(0)----------|--|

Guitarra 2:

e|--------------------------------|-----(0)--(0)-|--|
B|-5-5--4-4--2-2--0-0--2-2--4--2/-|-----(0)------|--|
G|-4-4--4-4--2-2--1-1--2-2--4--2/-|--------------|x2|
D|--------------------------------|--------------|--|
A|--------------------------------|--------------|--|
E|--------------------------------|--------------|--|


despues...

Guitarra 1: Eduardo 'Skay' Beilinson
      LA           SI            MI                 LA         SI             MI
e|------------|-----------|-----------------|------------|----------|-7-----7---------|
B|------------|-------9~--|----7------------|------------|-------9~-|---9-----9-------|
G|-------9~---|-----------|------9-7--------|-------9~---|----------|-----9-----(9)---|
D|-6-7-9------|-6-7-9-----|-----------------|-6-7-9------|-6-7-9----|-----------------|
A|------------|-----------|-----------------|------------|----------|-----------------|
E|------------|-----------|-----------------|------------|----------|-----------------|

Guitarra 2:
       LA           SI           MI               LA         SI         MI
e|----5-5-x-5-5-|---7-x-7-x-|---7-x-7-x-(7)-7-|----5-5-x-5-5-|---7-x-7-|---7-x-7-x-(7)-7-|
B|----5-5-x-5-5-|---7-x-7-x-|---9-x-9-x-(9)-9-|----5-5-x-5-5-|---7-x-7-|---9-x-9-x-(9)-9-|
G|----6-6-x-6-6-|---8-x-8-x-|---9-x-9-x-(9)-9-|----6-6-x-6-6-|---8-x-8-|---9-x-9-x-(9)-9-|
D|----7-7-x-7-7-|---9-x-9-x-|---9-x-9-x-(9)-9-|----7-7-x-7-7-|---9-x-9-|---9-x-9-x-(9)-9-|
A|--------------|-----------|-----------------|--------------|---------|-----------------|
E|--------------|-----------|-----------------|--------------|---------|-----------------|

Estrofa 1:

    LA                MI
Escuche un millón de voces en esta tierra
 LA                SI
oí tu silencio partir
     LA              MI
escuche un susurro que me decía
 LA                     MI
'ella baila siempre detrás'


Puente:

Guitarra 1: Eduardo 'Skay' Beilinson
      LA           SI            MI                 LA         SI             MI
e|------------|-----------|-----------------|------------|----------|-7-----7---------|
B|------------|-------9~--|----7------------|------------|-------9~-|---9-----9-------|
G|-------9~---|-----------|------9-7--------|-------9~---|----------|-----9-----(9)---|
D|-6-7-9------|-6-7-9-----|-----------------|-6-7-9------|-6-7-9----|-----------------|
A|------------|-----------|-----------------|------------|----------|-----------------|
E|------------|-----------|-----------------|------------|----------|-----------------|

Guitarra 2:
       LA           SI           MI               LA         SI         MI
e|----5-5-x-5-5-|---7-x-7-x-|---7-x-7-x-(7)-7-|----5-5-x-5-5-|---7-x-7-|---7-x-7-x-(7)-7-|
B|----5-5-x-5-5-|---7-x-7-x-|---9-x-9-x-(9)-9-|----5-5-x-5-5-|---7-x-7-|---9-x-9-x-(9)-9-|
G|----6-6-x-6-6-|---8-x-8-x-|---9-x-9-x-(9)-9-|----6-6-x-6-6-|---8-x-8-|---9-x-9-x-(9)-9-|
D|----7-7-x-7-7-|---9-x-9-x-|---9-x-9-x-(9)-9-|----7-7-x-7-7-|---9-x-9-|---9-x-9-x-(9)-9-|
A|--------------|-----------|-----------------|--------------|---------|-----------------|
E|--------------|-----------|-----------------|--------------|---------|-----------------|


Estrofa 2: (igual)

Me cruzé con un un niño y perros salvajes
vi una luz espectral
andaba un angel delante mío
'y ella baila siempre detrás'


Pre estribillo:

Guitarra 1: Eduardo 'Skay' Beilinson
      LA           SI            MI
e|------------|-----------|-----------------|
B|------------|-------9~--|----7------------|
G|-------9~---|-----------|------9-7--------|
D|-6-7-9------|-6-7-9-----|-----------------|
A|------------|-----------|-----------------|
E|------------|-----------|-----------------|

Guitarra 2:
       LA           SI           MI
e|----5-5-x-5-5-|---7-x-7-x-|---7-x-7-x-(7)-7-|-------|
B|----5-5-x-5-5-|---7-x-7-x-|---9-x-9-x-(9)-9-|-9-(9)-|
G|----6-6-x-6-6-|---8-x-8-x-|---9-x-9-x-(9)-9-|-9-(9)-| engancha con el estribillo
D|----7-7-x-7-7-|---9-x-9-x-|---9-x-9-x-(9)-9-|-9-(9)-|
A|--------------|-----------|-----------------|-------|
E|--------------|-----------|-----------------|-------|

Estribillo:
SI
me acompaña, nunca duerme
no descansa, siempre junto a mí

Solo de organo:

Guitarra: La-La-Mi-Mi-La-La-Si

Puente: (igual)

Estrofa 3: (igual)

Puse cuchillos y espadas filosas
clavados en una pared
puse un crusifijo que debajo decía
'ella baila siempre detrás'

Puente: (igual)

Estrofa 4: (igual)

Pase la frontera con los ojos cerrados
vi fuegos helados arder
y como una sombra que viaja conmigo
'la parca siempre viene detrás'

Pre estribillo: (igual)

Estribillo: (igual)

Me acompaña, nunca duerme,
no descansa, siempre junto a mí...


Final:

Guitarra 1:

e|--------|--|-------------|-------------|--------------------------------------|-(0)-----------|
B|--------|--|-------------|---------9~~-|-(7)----------------------------------|-(0)-----------|
G|-Puente-|x3|---------9~~-|-------------|-----9br-9p8-6------------------------|-(1)-----------|
D|--------|--|-6-7-(9)-----|-6-7-(9)-----|---------------9-7-6-7/9-7-6h7p6-2h4/-|-(2)-----------|
A|--------|--|-------------|-------------|--------------------------------------|-(2)-----------|
E|--------|--|-------------|-------------|--------------------------------------|-(0)-----------|

Guitarra 2:

e|--------|--|--------(5)--|--------(7)--|-----(7)------------------------------|-(0)-|-----(0)-|
B|--------|--|--------(5)--|--------(7)--|-----(9)------------------------------|-(1)-|-(0)-----|
G|-Puente-|x3|--------(6)--|--------(8)--|-----(9)------------------------------|-(2)-|---------|
D|--------|--|--------(7)--|--------(9)--|-----(9)------------------------------|-(2)-|---------|
A|--------|--|--------(7)--|--------(9)--|-----(7)------------------------------|-(1)-|---------|
E|--------|--|-------------|-------------|--------------------------------------|-(0)-|---------|


Fin
Suggest correction
Give kudos to tab author, rate the tab!
1 2 3 4 5
comments
print report bad tab
guest
Wanna post a correction for this tab? Suggest correction