Oops, an error
Loading. Please wait.

Paria Chords

10 views 1 this week
no commentswrite comment
1 2 3 4 5
3 more votes to show rating
add to favorites
launch autoscroll
font size
0
reset
transpose
0
reset
display chords
guitar tuner
Autoscroll
slow
fast
+/-
esc
set tempo
stop
Help us to improve Ultimate-Guitar.com Take our survey!
×
G     C          D    
Un monarca sin palacio
G     C            D
Un mago sin precisión
G     C           D
Condenado a mi destino
G      C        D
Héroe sin revolución.

G        D        G        D
No tengo patria, ni tengo ley
G          D     G         D
No tengo nombre, ni adónde ir
G           D       G       D
No tengo historia, no tengo dios
G          D         A
Esta es mi gloria, mi cielo, mi infierno, mi suerte.

Una pluma en el viento
Una ola en el mar
Soy un náufrago del tiempo
intentando hacer pié.

No tengo patria, ni tengo ley
No tengo nombre, ni adónde ir
No tengo historia, no tengo dios
Esta es mi gloria, mi cielo, mi infierno, mi suerte.

Nadie mira con mis ojos
Nadie siente con mi piel
Condenado a mi destino
Yo y mi sombra en ese chip.

Yo soy mi patria, yo soy mi ley
Tengo mil nombres, tengo mi dios.
Esta es mi gloria, esta es mi fé
Yo soy mi historia, presente, pasado, futuro.


E|---7p8--7-----------------------------------------|
B|------------10--8--7----7p8p7---------------------|
G|----------------------------------7------7--------|
D|-------------------------------------10-----------|
A|--------------------------------------------------|
E|--------------------------------------------------|


E|---7p8--7-----------------------------------------|
B|------------10--8--7----7p8p7------10/15-15-------|
G|--------------------------------------------------|
D|--------------------------------------------------|
A|--------------------------------------------------|
E|--------------------------------------------------|

aguanten skay el indio y los redondos
Suggest correction
Give kudos to tab author, rate the tab!
1 2 3 4 5
comments
print report bad tab
guest
You may want to rate the tab now too:
select rating
Wanna post a correction for this tab? Suggest correction