Oops, an error
Loading. Please wait.

Paria Tab

29 views 1 this week
no commentswrite comment
1 2 3 4 5
3 more votes to show rating
add to favorites
launch autoscroll
font size
0
reset
how to read this tab
guitar tuner
×
Best way to learn
"Paria"
Autoscroll
slow
fast
+/-
esc
set tempo
stop
INTRO:
         D                      C
E|-----------------------|----|----------------------|----|
B|-----------------------|----|----------------------|----|
G|--11-11-11-11-11-11-11-|----|--9--9--9--9--9--9--9-|----|
D|--12-12-12-12-12-12-12-|-X2-|-10-10-10-10-10-10-10-|-X2-|
A|--12-12-12-12-12-12-12-|----|-10-10-10-10-10-10-10-|----|
E|--10-10-10-10-10-10-10-|----|--8--8--8--8--8--8--8-|----|

           B                           Bb
E|-----------------------|----|----------------------|----|
B|-----------------------|----|----------------------|----|
G|--8--8--8--8--8--8--8--|----|--7--7--7--7--7--7--7-|----|
D|--9--9--9--9--9--9--9--|-X2-|--8--8--8--8--8--8--8-|-X2-|
A|--9--9--9--9--9--9--9--|----|--8--8--8--8--8--8--8-|----|
E|--7--7--7--7--7--7--7--|----|--6--6--6--6--6--6--6-|----|

                          D
E|--3-----3-3----3----3-x--x--3--x---3--3---3---/---|
B|--2-----2-2----2----2-x--x--2--x---2--2---2---/---|
G|--3-----3-3----3----3-x--x--3--x---3--3---3---/---|
D|--0-----0-0----0----0-x-----0------0------0-------|
A|--------------------------------------------------|
E|--------------------------------------------------|


C         G         D
Un monarca sin palacio
C         G         D
un mago sin presicion
C         G         D
condenado a mi destino
C         G         D
heroe sin revolucion


G             D
No tengo patria
G             D
ni tengo ley
G             D
no tengo nombre
C             G
ni a donde ir
C         G
no tengo historia
C         G
no tengo Dios
C          G
esta es mi gloria
D          D            D
mi cielo, mi infierno, mi suerte


C         G         D
Una pluma en el viento
C         G         D
una ola en el mar
C         G         D
soy un naufrago en el tiempo
C         G         D
intentando hacer pie


G             D
No tengo patria
G             D
ni tengo ley
G             D
no tengo nombre
C             G
ni a donde ir
C         G
no tengo historia
C         G
no tengo Dios
C          G
esta es mi gloria
D          D            D
mi cielo, mi infierno, mi suerte


     C     G        D                 C     G        D
E|--7/8---7-5----------------x--x--|-7/8---7-5------------10-10-10------|
B|------------8-7-8-7--------x--x--|-----------8-7-8-7------------8-8-7-|
G|--------------------7-5-7--x--x--|-------------------5/7--------------|
D|---------------------------x-----|------------------------------------|
A|---------------------------------|------------------------------------|
E|---------------------------------|------------------------------------|


C         G         D
Nadie mira con mis ojos
C         G         D
nadie siente con mi piel
C         G         D
condenado a mi destino
C         G         D
yo y mi sombra en este chip


G         D
Yo soy mi patria
G            D
yo soy mi ley
G           D        C         G
tengo mil nombres, tengo mi Dios
C            G       C          G
esta es mi gloria, esta es mi fe
C           G       D         D        D
yo soy mi historia, pasado, presente, futuro.

    C     G        D
E|--7/8---7-5-----------------------------------|
B|------------8-7-8-7~~-------------------------|
G|-----------------------------5-7-5------------|
D|----------------------------7------7-4-5-4----|
A|-------------------------------------------5~-|
E|----------------------------------------------|

FIN.
Suggest correction
Give kudos to tab author, rate the tab!
1 2 3 4 5
comments
print report bad tab
guest
You may want to rate the tab now too:
select rating
Wanna post a correction for this tab? Suggest correction