Oops, an error
Loading. Please wait.

Presagios Tab

27 views 3 this week
no commentswrite comment
1 2 3 4 5
3 more votes to show rating
add to favorites
launch autoscroll
font size
0
reset
how to read this tab
guitar tuner
Autoscroll
slow
fast
+/-
esc
set tempo
stop
Help us to improve Ultimate-Guitar.com Take our survey!
×
Intro:

|--11--11-------11--11--|--33------33---|--55----55---|
|--33--33-------33--33--|--33x-----33x--|--55x---55x--|
|--22--22-------22--22--|--33x-----33x--|--66x---66x--|
|--00--00-------00--00--|--55x-----55x--|--77x---77x--|
|--00--00-------00--00--|--55x-----55x--|--77x---77x--|
|-----------------------|--33------33---|--55----55---|


 Verso.

|----1-x-1--|------|----3-x-3--|------|
|----3-x-3--|------|----3-x-3--|------|
|----2-x-2--|--x4--|----3-x-3--|--x4--|  todo x2
|-----------|------|----5-x-5--|------|
|--0--------|------|--5--------|------|
|-----------|------|-----------|------|


|------------|------|----3-x-3--|------|
|-----5-x-5--|------|----3-x-3--|------|
|-----6-x-6--|--x4--|----3-x-3--|--x4--|
|-----7-x-7--|------|----5-x-5--|------|
|-----7---7--|------|--5--------|------|
|--5---------|------|-----------|------|


 solo:(3:20)
 * = palanca
|-------------------------------------------------|
|--15151515151515---18***-------------------------|
|--14141414141414---17***-------------------------|
|------------------------------14h15-14h15-14h15--|
|-------------------------------------------------|
|-------------------------------------------------|


-------------------------------------------------------|
-------------------------------------------------------|
-------------------------------------------------------|
-11h12-11h12-11h12-11h12-------------------------------|
--------------------------12h13-12h13-12h13-12h13------|
--------------------------------------------------12~--|


|---------------------------------------------|
|---------------------------13----------------|
|--12b-12br--10---------12br----1210-1210-----|
|--------------12~/----------------------12~--|
|---------------------------------------------|
|---------------------------------------------1

(3:38)
-------------------------------------------------------|
-------------------------------------------------------|
-------------------------------------------------------|
--------------7h8-7h8-7h8---11h12-11h12-11h12----14~~~-|
--7h8-7h8-7h8------------------------------------------|
-------------------------------------------------------|


|-----3-------3----|------5------5----|-----------|
|------3-------3---|-------5------5---|-----------|
|----3--3----3--3--|----6---6---6--6--|--todo x2--|
|---5-------5------|---7-------7------|-----------|
|--5-------5-------|--7-------7-------|-----------|
|------------------|------------------|-----------|


------------------------------------------------------|
--15~~~-------13----------------------10--------------|
--14~~~---12br--12~---12p(10)12b~---------12p(10)-----|
-------------------------------------------------12~--|
------------------------------------------------------|
------------------------------------------------------|

|------10---------------------------------------------------------------|
|--13b----1310----------------------------------------------------------|
|--------------1210-----------10-12b----12p(10)---10-12br-10-------10/--|
|------------------1210--1210------------------12-----------12~~~-------|
|-----------------------------------------------------------------------|
|-----------------------------------------------------------------------|


                              (4:28)
|----------------------------------------------------------------|
|-------------------------------11~-10-11~-10-11~-10-11~--10~~---|
|--9h(10)9~~~---9-676~~~-----------------------------------------|
|----------------------------------------------------------------|
|----------------------------------------------------------------|
|----------------------------------------------------------------|

--------------------------------|
--------------------------------|
----10~-9-10~-9-10~-9-10~--9~~--|
--------------------------------|
--------------------------------|
--------------------------------|


(4:51)
|-------------------------------------------------------|
|-------------------------6~------------------------6~--|
|--5-7--7777777--7-7h(5)-------5-7--777777--7-7h(5)-----|
|-----------------------7--------------------------7----|
|-------------------------------------------------------|
|-------------------------------------------------------|


-------------------------9h10-------------------------------|
--------------12-------------10h11--------------------------|
--/9~~~--9h10---109--9h10---------9h10--9h10-9h10-9h10-9~~--|
------------------------------------------------------------|
------------------------------------------------------------|
------------------------------------------------------------|


|-----10-------------------------------------------------------|
|--13b----1310--------------------------------------------15/--|
|--------------12brp10---10-12-10----10--12bbbr-p10-------14/--|
|----------------------12----------12---------------12~~-------|
|--------------------------------------------------------------|
|--------------------------------------------------------------|


------------------------------9h10----------------------------|
------------12---------------------10h11----------------------|
--9h10-9h10---109---9h10-9h10-----------9h10---9h10-9h10-9~~--|
--------------------------------------------------------------|
--------------------------------------------------------------|
--------------------------------------------------------------|


|-----3-------3----|------5------5----|-----------|
|------3-------3---|-------5------5---|-----------|
|----3--3----3--3--|----6---6---6--6--|--todo x2--|
|---5-------5------|---7-------7------|-----------|
|--5-------5-------|--7-------7-------|-----------|
|------------------|------------------|-----------|


------------------------------------------------------|
--15~~~-------13----------------------10--------------|
--14~~~---12br--12~---12p(10)12b~---------12p(10)-----|
-------------------------------------------------12~--|
------------------------------------------------------|
------------------------------------------------------|


no se si esta 100% bien pero suena  skay!
elpupi666@
pupi.
Suggest correction
Give kudos to tab author, rate the tab!
1 2 3 4 5
comments
print report bad tab
guest
You may want to rate the tab now too:
select rating
Wanna post a correction for this tab? Suggest correction