Oops, an error
Loading. Please wait.

Roto Y Mal Parado Tab

26 views 1 this week
no commentswrite comment
1 2 3 4 5
3 more votes to show rating
add to favorites
launch autoscroll
font size
0
reset
how to read this tab
guitar tuner
×
Best way to learn
"Roto Y Mal Parado"
Autoscroll
slow
fast
+/-
esc
set tempo
stop
INTRO:
  B-Bb          x2            
E|-------------|--|----------|
B|-------------|--|----------|
G|-4/3/4/3-4/6-|--|----------|(REPITE TODO UNA VEZ MAS)
D|-3/2/3/2-3/5-|--|-------2--|
A|-------------|--|--------4-|
E|-------------|--|2-3H-4H---|

  PUNTEO 1
  (o B-Bb)
E|-------------|
B|-------------|
G|-4/3/4/3-4/6-|
D|-3/2/3/2-3/5-|
A|-------------|
E|-------------|
  P2
E|-----------|
B|-----------|
G|-6-5-4---4-|
D|------5-6--|
A|-----------|
E|-----------|


B                          P1
 Quemás tu vida en este día,
en esta tibia, tibia fila.
 Quemás, Quemás, Quemás...       P2
Quemás, Quemás, Quemás... tu vida.

  ¿Comó te vá en estos dias?
 Humano roto y mal parado.
 Quemás, Quemás, Quemás...       P2
Quemás, Quemás, Quemás... tu vida.

  E   B  D   A
 ¡Fuego, fuego!  
  E   B  D   A
 ¡Fuego, fuego!
  E   B  D   A         B-Bb-B
 ¡Fuego, fuego! mentiras.

PUNTEO 1

 Tu loca voluntad humeando,
graznando fiero y sin estilo.
 Quemás, Quemás, Quemás... 
Quemás, Quemás, Quemás... tu vida.

 ¡Fuego, fuego!  
 ¡Fuego, fuego!
 ¡Fuego, fuego! mentiras.
 
  SOLO (x2) 2:50
E|------------------------|
B|------------------------|
G|-7-7-7-7-6-7--7-6-7-6-4-|
D|------------------------|
A|------------------------|
E|------------------------|

E|--------------------|
B|-----6--------------|
G|6-4-6-4-6--6-4------| (bastante bien, ya se que en la version
D|--------------6-4-3-| que tengo no se escucha bien la guitarra)
A|-------------------4|
E|--------------------|
 
 ¡Fuego, fuego!  
 ¡Fuego, fuego!
 ¡Fuego, fuego! mentiras... Mentiras... Mentiras... Mentiras.. 
   Mentiras..

Quemás tu vida en este día...

¡Fuego, fuego!...

Fin ' C  D-E


Version de Skay en Teatro Roxy...

Aguante Skay!!!
Suggest correction
Give kudos to tab author, rate the tab!
1 2 3 4 5
comments
print report bad tab
guest
You may want to rate the tab now too:
select rating
Wanna post a correction for this tab? Suggest correction