Oops, an error
Loading. Please wait.

Sindrome Del Trapecista Bass Tab

94 views 3 this week
no commentswrite comment
1 2 3 4 5
3 more votes to show rating
add to favorites
launch autoscroll
font size
0
reset
guitar tuner
×
Best way to learn
"Sindrome Del Trapecista"
Autoscroll
slow
fast
+/-
esc
set tempo
stop
Sindrome del Trapecista
-------- --- ----------

Intro: Se Toca 4 Veces
------


G--------------------------------------------
D--------------------------------------------
A-------5(x8)-6(x8)-3(x8)-------------6(x8)--
E-3(x8)-------------------3(x8)-6(x8)--------


Frase:
------

G-------------------------------------------------
D-------------------------------------------------
A----------------------1--3-1-3-1-3--3-1-3-1-3-1-- Esto se toca 3 veces
E-3-1-3-1-3--3-1-3-1-3----------------------------

G---------------------------
D---------------------------
A----------------------1-3-- A La Cuarta Va Esto
E-3-1-3-1-3--3-1-3-1-3------


Intro

Frase


Al Terminar La Frase, hace:
-- -------- -- -----  -----

G-----
D-----
A-/6--  
E-----


Estribillo:
-----------

G-----------------------
D-----------------------
A-------------6(x16)---- Esto se toca 3 veces
E-6(x8)-1(x8)-----------

G--------------------
D--------------------
A-------------6(x1)--  A la cuarta va esto
E-6(x8)-1(x8)--------


Intro

Frase

Estribillo

Solo de Guitarra : Se hace la Intro 2 veces
---- -- --------

Final:
------

G----------------------------------------
D----------------------------------------
A-10-8-10-5-5-5-8-6--10-8-10-5-5-5-8-6---
E----------------------------------------

G------------------------------------|
D------------------------------------|
A-10-8-10--3-1-3--10-9-8-7-6--10-10--|
E------------------------------------|
Suggest correction
Give kudos to tab author, rate the tab!
1 2 3 4 5
comments
print report bad tab
guest
You may want to rate the tab now too:
select rating
Wanna post a correction for this tab? Suggest correction