Oops, an error
Loading. Please wait.

Sindrome Del Trapecista Tab

121 views 1 this week
no commentswrite comment
1 2 3 4 5
3 more votes to show rating
add to favorites
launch autoscroll
font size
0
reset
how to read this tab
guitar tuner
×
Best way to learn
"Sindrome Del Trapecista"
Autoscroll
slow
fast
+/-
esc
set tempo
stop
INTRO:

   SOL5               RE5              RE#5            DO5
E|----------------|---------------|----------------|-------------------|
B|----------------|---------------|----------------|-------------------|
G|----------------|---------------|----------------|-------------------|
D|----------------|-7-7-7-7-7-7-7-|-8--8-8-8-8-8-8-|-5--5-5-5-5-5-5-5--|
A|--5-5-5-5-5-5-5-|-5-5-5-5-5-5-5-|-6--6-6-6-6-6-6-|-3--3-3-3-3-3-3-3--|
E|--3-3-3-3-3-3-3-|---------------|----------------|-------------------|

   SOL5               SIb5              RE#5
E|----------------|---------------|-----------------------------------|
B|----------------|---------------|-----------------------------------|
G|----------------|---------------|-----------------------------------|
D|----------------|-3-3-3-3-3-3-3-|-8--8-8-8-8-8-8-8-8-8--8---8-------|
A|--5-5-5-5-5-5-5-|-1-1-1-1-1-1-1-|-6--6-6-6-6-6-6-6-6-6--6---6-------|
E|--3-3-3-3-3-3-3-|---------------|-----------------------------------|


Riff 1

E|----------------------------------------------------------|
B|----------6-----------------------------------------------|
G|----5-7-8---8-7-5-(-7--------)x2--5---3-------------------|
D|--5-------------------5-5)-5------3---1-------------------|----|
A|----------------------------------------------------------|    |
E|----------------------------------------------------------|    |
                                                                 |x2
E|-----------------------------------8----------------------|    |
B|----------6------------------------8----------------------|    |
G|----5-7-8---8-7-5-(-8--------)x2--------------------------|    |
D|--5-------------------5-5-5-------------------------------|----|
A|----------------------------------------------------------|
E|----------------------------------------------------------|

RIFF 2
Vas torciendo la vereda
RIFF 3
Va temblando tu timón
RIFF 2               RIFF 3
Podrás cruzar las aguas sin mojar.
RIFF 2
Vas huyendo de tu sombra
RIFF 3
Vas cambiándote la piel
RIFF 2               RIFF 3
Podrás cruzar las llamas sin arder.


RIFF 2

E|----------------------|
B|----------------------|
G|----------------------|x2
D|----------------------|
A|-----------------1----|
E|--3--1--3--1--3-------|

RIFF 3

E|----------------------|
B|----------------------|
G|----------------------|x2
D|----------------------|
A|--3--1--3--1--3--1----|
E|----------------------|

REPITE: RIFF 1

VERSO 2: (igual)

Las calles están vacías y muertas para soñar
y no tenes lugar a donde ir
Yo te llevo en mi tormenta hasta desaparecer
Podrás arder en llamas y sin quemar   [Do5,Mib5]

     DO5            MIb5
E|-------------|--------------|
B|-------------|--------------|
G|--55---------|---88---------|
D|--55---------|---88---------|
A|--33---------|---66---------|
E|-------------|--------------|

Jugaste, fichaste, reíste...

E|------------------|
B|------------------|
G|--2--3--3--3------|x6
D|------------------|
A|------------------|
E|------------------|

Y ahí vas. ( Dom )

   DOm
E|--3------------|
B|--3--4---------|
G|--3-----5------|
D|--3-----5------|
A|--3------------|
E|---------------|

REPITE RIFF 1

VERSO 3:(igual)

Vos pone la gasolina
que yo prendo el motor
podras cruzar el puente sin caer
al lleguar la media noche
aunque tenga un ala rota voy a hacer mi tiro sin fallar.

?ESTRIBILLO?(igual)

 Jugaste , fichaste, reiste , lloraste
ganaste perdiste  y hay mas
 gozaste, quemaste, reiste
ganaste perdiste  y hay mas.

REPITE RIFF 1

SOLO DE GUITARRA

E|---------------------------------------------------------------------|
B|----------------------------------------------------------11---------|
G|--7~~~-7-5-3-5--3L-5L-3L--3-2-3-2-------2-3-5-5--10-12-12----12------|
D|----------------------------------5-3-5------------------------------|
A|---------------------------------------------------------------------|
E|---------------------------------------------------------------------|

E|--------------------------3------------------------------------------|
B|----6-------------------3--------------3-----------------------------|
G|-/7---5---5(7)/5-3-5(7)-----5-3-5-3----3--5(7)/5--3-5-3-5(7)/5-3-----|
D|--------8---------------------------5----------------------------5-5-|
A|---------------------------------------------------------------------|
E|---------------------------------------------------------------------|

E|--------------------------------------13-----------------------------|
B|-----------------------11----11-13(15)---(15)/13-11-13----11---------|
G|------3---5--/12-12-12----12---------------------------12----12----10|
D|--5-5---5------------------------------------------------------/12---|
A|---------------------------------------------------------------------|
E|---------------------------------------------------------------------|

E|---------------------------------------------------------------------|
B|-------------------8-6-8--3333--6-4------8-6-8-----------------------|
G|-----10-8-7-5-7--(-7-5-7--3333--7-3-)x2--7-5-7---5-----3----5--------|
D|--12---------------------------------------------5-----3----5--------|
A|-------------------------------------------------3-----1----3--------|
E|---------------------------------------------------------------------|

E|---------------------|--------|
B|--8--7--6--5--4------|--------|
G|--7--6--5--4--3------|--------|
D|---------------------|---5----| Fin
A|---------------------|---5----|
E|---------------------|---3----|

L: Ligado
5(7):La nota dentro del paréntesis no se toca

Cualquier pregunta:Cristian77_2008@
?el arte no se aprende se comprende?
Suggest correction
Give kudos to tab author, rate the tab!
1 2 3 4 5
comments
print report bad tab
guest
You may want to rate the tab now too:
select rating
Wanna post a correction for this tab? Suggest correction