Oops, an error
Loading. Please wait.

Sindrome Del Trapesista Chords

37 views 1 this week
no commentswrite comment
1 2 3 4 5
3 more votes to show rating
add to favorites
launch autoscroll
font size
0
reset
transpose
0
reset
simplify chords
display chords
guitar tuner
Autoscroll
slow
fast
+/-
esc
set tempo
stop
Intro:
(En quintas) Sol-Re-Mib-Do - Sol-Sib-Mib x2

Riff:

                      G     D         Eb   C
1---------------------------------------------
2---------------------------------------10-8--
3--------7-8-9-8-7----7-------7---------10-8--
4------8  ---------10-------------------10-8--
5---10------------------10-10---10-10---------
6---------------------------------------------
                      G     Bb     Eb
1-------------------------------------8----8-8-
2---------------------8-------8-------8----8-8-
3--------7-8-9-8-7--------------------8----8-8-
4------8-----------10--------------------------
5---10------------------10-10---10-10----------
6----------------------------------------------

(Nota: el riff es x 2 pero en la segunda vuelta
las dos ultimas notas son Fa y Do en vez de Sib y Mib)


Encima de la estrofa:
  Gm                     Cm
5--------------------------3-1-3-1-3-1-3-1-3-1-3-
6-3-1-3-1-3-1-3-1-3-1-3--------------------------


Gm                     Cm
Vas torciendo la vereda, va temblando tu timón
Gm                          Cm
Podrás cruzar las aguas sin mojar?
Gm                     Cm
Vas huyendo de tu sombra vas cambiándote la piel
Gm                           Cm        Eb
Podrás cruzar las llamas sin arder?


Las calles están vacías y muertas para soñar
Y no tenes lugar adonde ir.
Yo te llevo en mi tormenta hasta desaparecer
Podrás arder en llamas sin quemar?


Estribillo:

Bb      F        Cm    Eb
Jugaste, fichaste, reíste, lloraste,
Bb      F             Cm
Ganaste, perdiste y ahí vas
Pensaste, cruzaste, quemaste, reíste,
ganaste, perdiste y ahí vas.


Vos pone la gasolina que yo pongo el motor
Podrás cruzar el puente y no caer?
Al llegar la media noche aunque tenga un ala rota
Voy a hacer mi tiro sin fallar.

Corte del final:

G5-F5-So5l-D5-F5-Eb5-C5 x2
G5-F5-G5-C5-Bb5-C5-SOL5-SOLb5-F5-E5-Eb5-SOL5
Suggest correction
Give kudos to tab author, rate the tab!
1 2 3 4 5
comments
print report bad tab
guest
You may want to rate the tab now too:
select rating
Wanna post a correction for this tab? Suggest correction