Oops, an error
Loading. Please wait.

Sindrome Del Trapesista Tab

version 1
version 1

Whole song

25 views 1 this week
no commentswrite comment
1 2 3 4 5
3 more votes to show rating
add to favorites
launch autoscroll
font size
0
reset
how to read this tab
guitar tuner
×
Best way to learn
"Sindrome Del Trapesista"
Autoscroll
slow
fast
+/-
esc
set tempo
stop
INTRO:
GUITARRA: Sin distorcion
   SOL5               RE5              RE#5            DO5
E|----------------|---------------|----------------|-------------------|
B|----------------|---------------|----------------|-------------------|
G|----------------|---------------|----------------|-------------------|
D|----------------|-7-7-7-7-7-7-7-|-8--8-8-8-8-8-8-|-5--5-5-5-5-5-5-5--|
A|--5-5-5-5-5-5-5-|-5-5-5-5-5-5-5-|-6--6-6-6-6-6-6-|-3--3-3-3-3-3-3-3--|
E|--3-3-3-3-3-3-3-|---------------|----------------|-------------------|
Pm ..............   .............      ...........      .............
   SOL5               SIb5              RE#5           
E|----------------|---------------|-----------------------------------|
B|----------------|---------------|-----------------------------------|
G|----------------|---------------|-----------------------------------|
D|----------------|---------------|-8--8-8-8-8-8-8-8-8-8--8---8-------|
A|--5-5-5-5-5-5-5-|-8-8-8-8-8-8-8-|-6--6-6-6-6-6-6-6-6-6--6---6-------|
E|--3-3-3-3-3-3-3-|-6-6-6-6-6-6-6-|-----------------------------------|
Pm ..............   .............   .......................     


GUITARRA2: HAce esto :

   SOL5               RE5              RE#5            DO5
E|----------------|---------------|----------------|-------------------|
B|----------------|---------------|----------------|-------------------|
G|----------------|---------------|----------------|-------------------|
D|----------------|-7-7-7-7-7-7-7-|-8--8-8-8-8-8-8-|-5--5-5-5-5-5-5-5--|----|
A|--5-5-5-5-5-5-5-|-5-5-5-5-5-5-5-|-6--6-6-6-6-6-6-|-3--3-3-3-3-3-3-3--|    |
E|--3-3-3-3-3-3-3-|---------------|----------------|-------------------|    |
Pm ..............   .............      ...........      .............       |X3
   SOL5               SIb5              RE#5                                |
E|----------------|---------------|-----------------------------------|     |
B|----------------|---------------|-----------------------------------|     |
G|----------------|---------------|-----------------------------------|-----|
D|----------------|---------------|-8--8-8-8-8-8-8-8-8-8--8---8-------|
A|--5-5-5-5-5-5-5-|-8-8-8-8-8-8-8-|-6--6-6-6-6-6-6-6-6-6--6---6-------|
E|--3-3-3-3-3-3-3-|-6-6-6-6-6-6-6-|-----------------------------------|
Pm ..............   .............   .......................     

BAJO:    SOL              RE              RE#            DO
G|----------------|---------------|----------------|-------------------|
D|----------------|---------------|----------------|-------------------|----|
A|----------------|-5-5-5-5-5-5-5-|-6--6-6-6-6-6-6-|-3--3-3-3-3-3-3-3--|    |
E|--3-3-3-3-3-3-3-|---------------|----------------|-------------------|    |X3            
    SOL               SIb              RE#                                  |
G|----------------|---------------|-----------------------------------|-----|
D|----------------|---------------|-----------------------------------|
A|----------------|---------------|-6--6-6-6-6-6-6-6-6-6--6---6-------|
E|--3-3-3-3-3-3-3-|-6-6-6-6-6-6-6-|-----------------------------------|
   

GUITARRA 2:
RIFF 1: (empieza en la en el ultimo RE#5)

E|-------------------------------------------|---------------------------------------(8)-|
B|----------6----------------------------(4)-|----------6---------8~-------8~--------(8)-|
G|----5-7-8---8-7-5---7~-------7~--------(3)-|----5-7-8---8-7-5--------------------------|X2
D|--5--------------------5-555----5-55-3-----|--5--------------------5-555----5-555------|
A|-------------------------------------------|-------------------------------------------|
E|-------------------------------------------|-------------------------------------------|


VERSO 1:

GUITARRA: 
     *                RIFF 2                     RIff 3                                    RE5
E|-8-8-8---|      ||-----------------------------|-----------------------------||  |-------|-----|
B|-8-8-8-8-|      ||-----------------------------|-----------------------------||  |-------|-----|
G|-------7-|      ||-----------------------------|-----------------------------||X3|-RIFF-2|-(7)-| 
D|---------|      ||-----------------------------|-------------%-------------1-||  |-------|-(7)-|
A|---------|      ||-------------1-------------1-|-3-1-3--1-3-----3-1-3--1-3---||  |-------|-(5)-|
E|---------|    ||--3-1-3--1-3----3-1-3--1-3---|-----------------------------||  |-------|-----|
                  PM.........................................................

BAJO:
G|-----------------------------|-----------------------------||    |-------|------|
D|-----------------------------|-------------%-------------1-|| X3 |-RIFF-2|------|
A|-------------1-------------1-|-3-1-3--1-3-----3-1-3--1-3---||    |-------|-(5)--|
E|--3-1-3--1-3----3-1-3--1-3---|-----------------------------||    |-------|------|

RIFF 2                 RIff 3 
Vas tociendo la vereda y va temblando tu timon
RIFF 2                              RIff 3 
Podras cruzar las aguas sin mojar.
RIFF 2                   RIff 3 
Vas huyendo de tu sombra vas cambiandote las piel
RIFF 2                          RE5
podras cruzar las llamas sin arder.


PUENTE : (como intro)

GUITARRA2: HAce esto :

   SOL5               RE5              RE#5            DO5
E|----------------|---------------|----------------|-------------------|
B|----------------|---------------|----------------|-------------------|
G|----------------|---------------|----------------|-------------------|
D|----------------|-7-7-7-7-7-7-7-|-8--8-8-8-8-8-8-|-5--5-5-5-5-5-5-5--|----|
A|--5-5-5-5-5-5-5-|-5-5-5-5-5-5-5-|-6--6-6-6-6-6-6-|-3--3-3-3-3-3-3-3--|    |
E|--3-3-3-3-3-3-3-|---------------|----------------|-------------------|    |
Pm ..............   .............      ...........      .............       |X3
   SOL5               SIb5              RE#5                                |
E|----------------|---------------|-----------------------------------|     |
B|----------------|---------------|-----------------------------------|     |
G|----------------|---------------|-----------------------------------|-----|
D|----------------|---------------|-8--8-8-8-8-8-8-8-8-8--8---8-------|
A|--5-5-5-5-5-5-5-|-8-8-8-8-8-8-8-|-6--6-6-6-6-6-6-6-6-6--6---6-------|
E|--3-3-3-3-3-3-3-|-6-6-6-6-6-6-6-|-----------------------------------|
Pm ..............   .............   .......................     

GUITARRA 2:
RIFF 1: (empieza desde el RE qu equeda sonando en el verso)

E|-------------------------------------------|---------------------------------------(8)-|
B|----------6----------------------------(4)-|----------6---------8~-------8~--------(8)-|
G|----5-7-8---8-7-5---7~-------7~--------(3)-|----5-7-8---8-7-5--------------------------|X2
D|--5--------------------5-555----5-55-3-----|--5--------------------5-555----5-555------|
A|-------------------------------------------|-------------------------------------------|
E|-------------------------------------------|-------------------------------------------|


VERSO 2: (igual)

Las calles estan vacias y muertas para soñar
y no tenes lugar a donde ir
yo te llevo en mi tormenta hasta desaparecer
podras arder en llamas y quemar


ESTRIBILLO 1:

BAJO:                     SIb                DO ("y hay mas")
G|----------------|------------------------------|-------------------------------------|
D|----------------|------------------------------|-------------------------------------|
A|--6-6-6-6-6-6-6-|------------------------------|-------------------------------------|
E|----------------|--6-6-6-6-6-6-6-6-6-6-6-6-(8)-|6-6-6-6-6-6-6-6-6-6-6-6-6-6-6-6-(8)--|
                           ______X3_______
GUITARRA:  RE#5           |    RIff 4     |                       ___X2_____
E|----------------|      ||------------------|-------------------|----------|-----------|
B|----------------|      ||------------------|-------------------|----------|-----------|
G|--8-8-8-8-8-8-8-|      ||------------------|-------------------|---Riff-4-|-----------|X2
D|--8-8-8-8-8-8-8-|      ||---7h8------------|-----7h8-8-77-55---|----------|----7h(8)--|
A|--6-6-6-6-6-6-6-|      ||-8-----8-8-8-8-8--|-----------------8-|----------|-----------|
E|----------------|      ||-6-----6-6-6-6-6--|--6----------------|----------|-6---------|
                          Pm........   PM..............


Jugaste , fichaste, creiste , lloraste
ganaste perdiste  y hay mas

     , gozaste, quemaste, reiste
ganaste perdiste  y hay mas


******REPITE EL PUENTE**** (igual)

VERSO 3 (igual)

Vos pone la gasolina
que yo prendo el motor
podras cruzar el puente sin caer
al lleguar la media noche 
aunque tenga un ala rota voy a hacer mi tiro sin fallar.


******REPITE ESTRIBILLO****** 

******REPITE EL PUENTE**** (igual)


SOLO DE GUITARRA:


BAJO:   SOL              RE              RE#            DO
G|----------------|---------------|----------------|-------------------|
D|----------------|---------------|----------------|-------------------|----|
A|----------------|-5-5-5-5-5-5-5-|-6--6-6-6-6-6-6-|-3--3-3-3-3-3-3-3--|    |
E|--3-3-3-3-3-3-3-|---------------|----------------|-------------------|    |X2            
    SOL               SIb              RE#                                  |
G|----------------|---------------|-----------------------------------|-----|
D|----------------|---------------|-----------------------------------|
A|----------------|---------------|-6--6-6-6-6-6-6-6-6-6--6---6-------|
E|--3-3-3-3-3-3-3-|-6-6-6-6-6-6-6-|-----------------------------------|
   
GUITARRA 2:
[SOL5 - RE5 - RE#5-  DO5]  [SOL5-  SIb5- RE#5 ] X2


SOLO:
E|-------------------------------------|--------------------------------|-------------------|
B|----------6--------------------------|--------------------------------|-----------3-3--/8-|
G|----5-7-8---8-7-5--(7~~~~~)-7~--7~7~-|-7---5-3-5-3---5p3p2---3-2------|-------3-5---------|
D|--5----------------------------------|---------------------5-----(5~)-|-3-5-5-------------|
A|-------------------------------------|--------------------------------|-------------------|
E|-------------------------------------|--------------------------------|-------------------|

E|-----6~-------------------------------|------------------------------|-----------------------|
B|--8~----8~----------------------------|------------------------------|-----------------------|
G|-----------------7--------------------|------------------------------|---------------12-12~~-|
D|--------------10b--10-8---10-8b-----8~|--12p10--8-10--8-10~-8--------|--------8---10---------|
A|-----------------------10-------10----|-----------------------10-10~~|--10-10--10------------|
E|--------------------------------------|------------------------------|-----------------------|

E|---------------------13---------------------|-------------------------|
B|------11-----11--/15----13-11-13----11------|-------6---6-------------|
G|-12~~---12~~---------------------12----12~~-|---5/7-------8-7-5--7~~--|
D|--------------------------------------------|-------------------------|
A|--------------------------------------------|-------------------------|
E|--------------------------------------------|-------------------------|

 
FINAL:

GUITARRA 1:
   SOL   FA SOL  RE      FA  RE#     SOL FA soL  DO SIb DO   SOL FA# FA MI RE#  SOL
E|------------------------------|--|-----------|-8--6--8---|----------------------------|
B|--8----6---8------------6--(4)|--|-8---6--8--|-8--6--8---|--8---7--6--5--4------------|
G|--7----5---7--7-7-7-7---5--(3)|x2|-7---5--7--|-----------|--7---6--5--4--3---7-7------|
D|--------------7-7-7-7---------|--|-----------|-----------|-------------------5-5------|
A|--------------5-5-5-5---------|--|-----------|-----------|----------------------------|
E|------------------------------|--|-----------|-----------|----------------------------|

GUITARRA2:
  SOL   FA SOL  RE      FA  RE#      SOL FA soL  DO SIb DO  SOL FA# FA MI RE#  SOL
E|------------------------------|--|-----------|-----------|----------------------------|
B|------------------------------|--|-----------|-----------|----------------------------|
G|-------------7-7-7-7--10-(8)--|x2|-----------|--5--3--5--|----------------------------|
D|-5---3---5---7-7-7-7--10-(8)--|--|--5--3--5--|--5--3--5--|-12-11-10--9--(8)-----------|
A|-5---3---5---5-5-5-5---8-(6)--|--|--5--3--5--|--3--1--3--|-10--9--8--7--(6)--5-5------|
E|-3---1---3--------------------|--|--3--1--3--|-----------|-------------------3-3------|

bajo:
G|------------------------------|--|-----------|-----------|---------------------------|
D|------------------------------|X2|-----------|-----------|---------------------------|
A|-------------5-5-5-5---8-(6)--|--|-----------|--3--1--3--|-10--9--8--7--(6)----------|
E|-3---1---3--------------------|--|--3--1--3--|-----------|-------------------3--3----|


FIN
Suggest correction
Give kudos to tab author, rate the tab!
1 2 3 4 5
comments
print report bad tab
guest
You may want to rate the tab now too:
select rating
Wanna post a correction for this tab? Suggest correction