Oops, an error
Loading. Please wait.

Sindrome Del Trapesista Tab

version 2
version 2

Whole song

19 views 1 this week
no commentswrite comment
1 2 3 4 5
3 more votes to show rating
add to favorites
launch autoscroll
font size
0
reset
how to read this tab
guitar tuner
Autoscroll
slow
fast
+/-
esc
set tempo
stop
Help us to improve Ultimate-Guitar.com Take our survey!
×
Aca va otra alternativa para el solo, no se si esta igual, pero suena bien y es facil...


Solo de guitarra:

e|----------------|-------------|------------------------|---------------(6)-----|
B|---------6------|-------------|------------------------|-----------6-8-----8~~-|
G|---5-7-8--8-7-5-|-7~-7~-7~-7~-|-7-5-3h5p3h5p3-2-3-2----|-----5-7-7-------------|
D|-5--------------|-------------|---------------------5~-|-5-8-------------------|
A|----------------|-------------|------------------------|-----------------------|
E|----------------|-------------|------------------------|-----------------------|

e|--------------|------------------|---|-----|----------------------|
B|-----6--------|----6-------------|---|-----|----------------------|
G|-5h7---7---5~-|-5b---5p3---5p3---|-#-|-(3)-|-5br-3-5-3-5br-3------|
D|---------8----|----------5-----5-|---|-(3)-|-----------------5-5~-|
A|--------------|------------------|---|-----|----------------------|
E|--------------|------------------|---|-----|----------------------|

e|-----------------6---6-|-----13--------------------|------------------|
B|---------6/8-8-8---8---|-13b----13-11-13----11-----|-----6-6----------|
G|---3---3---------------|-----------------12----12~-|-5/7-----8-7-5-7~-|
D|-5---5-----------------|---------------------------|------------------|
A|-----------------------|---------------------------|------------------|
E|-----------------------|---------------------------|------------------|


Fade out:

e|---------|---------------(8)-|--|---------|---------|---------|---------|-------------|-3-3-||
B|-8-6-(8)-|---------------(8)-|--|-8-6-(8)-|---------|---------|---------|-------------|-3-3-||
G|-7-5-(7)-|-7-7-7-7-10-8~-----|x2|-7-5-(6)-|---------|-5-3-(5)-|---------|-8-7-6-5-(4)-|-----||
D|---------|-7-7-7-7-10-8~-----|--|---------|-0-0-0-0-|-5-3-(5)-|-0-0-0-0-|-7-6-5-4-(3)-|-----||
A|---------|-------------------|--|---------|---------|---------|---------|-------------|-----||
E|---------|-------------------|--|---------|---------|---------|---------|-------------|-----||
                                           PM ........           .........

Fin...


h= Hammer On - Ligado ascendente
p= Pull Off - Ligado descendente
()= Dejar sonar
~= Vibrato
b= Bend - Estirar cuerda
br= Estirar y volver
PM= Palm Mute
#= Silencio
Suggest correction
Give kudos to tab author, rate the tab!
1 2 3 4 5
comments
print report bad tab
guest
You may want to rate the tab now too:
select rating
Wanna post a correction for this tab? Suggest correction