Oops, an error
Loading. Please wait.

Soldaditos De Plomo Tab

33 views 1 this week
no commentswrite comment
1 2 3 4 5
3 more votes to show rating
add to favorites
launch autoscroll
font size
0
reset
how to read this tab
guitar tuner
×
Best way to learn
"Soldaditos De Plomo"
Autoscroll
slow
fast
+/-
esc
set tempo
stop
INTRO:

1ra Parte

Base de bajo al principio del tema

G |----------------------------------|
D |----------------------------------|
A |-(3)/5--5---5?5--(3)/5--5---5-5---|
E |----------------------------------|

Mientras esta la base de bajo

E |------------------------|
B |--------------------10--|
G |-10-10-----10----10-10--| x4
D |-10-10-x-x-10-x--10-10--|
A |-------x-x----x---------|
E |------------------------|


2da parte:

1º guitarra

E |-------------------------------|---------------------------|
B |-------------------------------|---------------------------|
G |--------------------------(7)--|---------------------------|
D |--7-------7-------7-----7------|-7-------7-------7---------|
A |----5-7-5---5-7-5---5-7--------|---5-7-5---5-7-5---5-7-(5)-|
E |-------------------------------|---------------------------|

2º Guitarra (de fondo)

E |-----------------------------------|
B |-----------------------------------|
G |-10-10-10-10-10-10-10-10-10-(7)----|
D |-10-10-10-10-10-10-10-10-10-(7)----| x2
A |-----------------------------------|
E |-----------------------------------|


No pregunta, no responde
No se calla, siempre no

E |----|
B |----|
G |-7--|
D |-7--|
A |----|
E |----|

Si lo buscan, si reclaman
No, nada, nadie, nunca, jamás!!

1º guitarra

E |-------------------------------|---------------------------|
B |-------------------------------|---------------------------|
G |--------------------------(7)--|---------------------------|
D |--7-------7-------7-----7------|-7-------7-------7---------|
A |----5-7-5---5-7-5---5-7--------|---5-7-5---5-7-5---5-7-(5)-|
E |-------------------------------|---------------------------|

2º Guitarra (de fondo)

E |-----------------------------------|
B |-----------------------------------|
G |-10-10-10-10-10-10-10-10-10-(7)----|
D |-10-10-10-10-10-10-10-10-10-(7)----| x2
A |-----------------------------------|
E |-----------------------------------|

Anti besos, anti balas
Anti todo, anti look
Más que anarco, superbomba
No, nada, nadie, nunca, jamás!!


E |-------------------------------2----3--2-----|
B |-------------------------------3----3--3-----|
G |-4-2-4-2-4-2-4-2-4-2-4-2-4-2---2----0--2-----|
D |-4-2-4-2-4-2-4-2-4-2-4-2-4-2---0----0--0-----| x2
A |------------------------------------2--------|
E |------------------------------------3--------|

E |--------------------------------------------------------|
B |--------------------------------------------------------|
G |--------------------------------------------------------|
D |--------------------------------------------------------| x2
A |-----------------------(3)----------------------3-------|
E |--5-5-3-(5)---5--3-3-5-------5-5-3-(5)---5--3-3----(3)~-|


E |----2-----------15/14---10/18-------------|
B |----3----------------------------10-8-7~--|
G |----2-------------------------------------|
D |----0-------------------------------------|
A |------------------------------------------|
E |------------------------------------------|

Luego...


E |-----------------------------------------|
B |-----------------------------------------|
G |-----------------------------------------|
D |-----------------------------------------|
A |-5-5-5-5-5-5-5-5-5-5-5-5-5-5-5-5-5-5-5---|
E |-----------------------------------------|

No... no... no... no!!!


E |---------------------------------------|
B |-8/10-10-10-10-10-10-10---8/10-10-(10)-|
G |-7/9--9--9--9--9--9--9----7-9--9--(9)--|
D |---------------------------------------| x2
A |---------------------------------------|
E |---------------------------------------|


Siempre nada, siempre nadie
Siempre nunca, siempre no
Positivo el negativo
No, nada, nadie, nunca, jamás.

E |-------------------------------2----3--2-----|
B |-------------------------------3----3--3-----|
G |-4-2-4-2-4-2-4-2-4-2-4-2-4-2---2----0--2-----|
D |-4-2-4-2-4-2-4-2-4-2-4-2-4-2---0----0--0-----| x2
A |------------------------------------2--------|
E |------------------------------------3--------|


E |------------------------------------------------------------------|
B |------------------------------------------------------------------|
G |-9-7-9-7-9-7-9-7-9-7-9-7-(9)----12-11-12-11-12-11-12-11-12-11-(12)|
D |-9-7-9-7-9-7-9-7-9-7-9-7-(9)----12-12-12-12-12-12-12-12-12-12-(12)|
A |------------------------------------------------------------------|
E |------------------------------------------------------------------|

(Silencio)

Nunca, nada, nadie!

E |---------------------|
B |---------------------|
G |---12^-10------------|
D |---12^-10-12---(12)--|
A |----------12---(12)--|
E |---------------(10)--|


FIN.
Suggest correction
Give kudos to tab author, rate the tab!
1 2 3 4 5
comments
print report bad tab
guest
You may want to rate the tab now too:
select rating
Wanna post a correction for this tab? Suggest correction