Oops, an error
Loading. Please wait.

Tarde De Lluvia Tab

20 views 1 this week
no commentswrite comment
1 2 3 4 5
3 more votes to show rating
add to favorites
launch autoscroll
font size
0
reset
how to read this tab
guitar tuner
×
Best way to learn
"Tarde De Lluvia"
Autoscroll
slow
fast
+/-
esc
set tempo
stop
--------------------------------|
--------------------------------|
------------4-6b-6b-4-4---------|
--------4/6----------6-6~-------|
--------------------------------|
--------------------------------|


--------------------------------|
--------------------------------|
-----------4-6b-6b-4-6p-4-------|
-------4/6---------------6p~----|
--------------------------------|
--------------------------------|


--------------------------------|
--------------------------------|
-----3/9------9-8-7/9~----------|
--------------------------------|
--------------------------------|
--------------------------------|


--------------------------------|
--------------------------------|
------6b-6b-7b-6b-7~-7-6-7------|
--------9--9--9--9------9-9-----|
--------------------------------|
--------------------------------|


--------------------------------|
--------------------------------|
------3/11--11-11-10-9~9--------|
--------------------------------|
--------------------------------|
--------------------------------|


--------------------------------|
--------------------------------|
-----3/11-11-11-11-11-10-9-7~---|
--------------------------------|
--------------------------------|
--------------------------------|


--------------------------------|
--------------------------------|
------3/11--11-11-10-9~9--------|
--------------------------------|
--------------------------------|
--------------------------------|


-------------------------------17------|
---------------------15-17-15-17b17b---|
---------------14-16-------------------|
---------14-16p------------------------|
---------------------------------------|
---------------------------------------|


--------------------------------|
--5/10-10-10-9-8~8--------------|
--------------------------------|
--------------------------------|
--------------------------------|
--------------------------------|


--------------------------------|
--5/10-10-10-10-10-9-8~6--------|
--------------------------------|
--------------------------------|
--------------------------------|
--------------------------------|


-------------------------------------------------------------------|
-8b--8b--8b----8b--8b--8b--------11b-11b-11b----11b-11b-11b--------|
-10b-10b-10b---10b-10b-10b-------13b-13b-13b----13b-13b-13b--------|
-------------------------------------------------------------------|
-------------------------------------------------------------------|
-------------------------------------------------------------------|


--------------------------------|
-----------------4-5-6-7--------|
-----------------3-4-5-6--------|
--4--5--6--8~-------------------|
--3--4--5--7~-------------------|
--------------------------------|


----12-10-12b-12-10--10---------|
-------------------13--12b------|
--------------------------------|
--------------------------------|
--------------------------------|
--------------------------------|


Este se lo dedico a mi hermano David q me dio la ultima opinion,
a el le parece q suena bien! a mi tmb me gusta!!
cualquier corrección es bien aceptada y sirve para mejorar. gracias!!

e-mail skay_247@
Suggest correction
Give kudos to tab author, rate the tab!
1 2 3 4 5
comments
print report bad tab
guest
You may want to rate the tab now too:
select rating
Wanna post a correction for this tab? Suggest correction