Oops, an error
Loading. Please wait.

Territorio Canibal Bass Tab

23 views 3 this week
no commentswrite comment
1 2 3 4 5
3 more votes to show rating
add to favorites
launch autoscroll
font size
0
reset
guitar tuner
Autoscroll
slow
fast
+/-
esc
set tempo
stop
Help us to improve Ultimate-Guitar.com Take our survey!
×
E?17/5

INTRO
-----

E-55-88---55-88---55-88---11?33-

Verso 1
-------

E-55-88---55-88---55-88---11?33-  esto se toca todo el verso

Puente
-------

E-1(X12)-3-1-3  esto se toca 4 veces

Verso 2
-------

E-55-88---55-88---55-88---11?33-  3 veces


E-55-88---55-88---55-88---55-88 a la cuarta va esto

Estribillo (q pedazo de estribo!! sin palabras flaco..sos un marcianoo


G---------------------------------------------------------
D---------------------------------------------------------
A-3(X8)---------------------------------------------------
E------3(X8)-10(X15)-12-13(X16)---55-88?55-88-55-88-55-88-

G---------------------------------------------------
D------------------------------15-14-12-10-9-7-5-3--
A-3(X8)---------------------------------------------
E------3(X8)-10(X15)-12-13(X16)---------------------


REPITE INTRO X2 Y LUEGO HACE ESTO

G----------------------------
D----------------------------
A-----6-------6--------8---8-  X4
E-8-8---8---8---8-8?-8---8---

VERSO (COMO INTRO)

PUENTE (X4)

ESTRIBILLO

FINAL
G---------------------------
D---------------------------
A-12(X4)?7(X4)-------------- (X4) sin bateria
E--------------8(X4)-7-8-7--

G---------------------------
D---------------------------
A-5(X4)?0(X4)-------------- (X17) con bateria
E--------------8(X4)-7-8-7?

Bueno eso es todo,, sta bastant parecida.. saludoss
mario_925@
Suggest correction
Give kudos to tab author, rate the tab!
1 2 3 4 5
comments
print report bad tab
guest
You may want to rate the tab now too:
select rating
Wanna post a correction for this tab? Suggest correction