Oops, an error
Loading. Please wait.

Territorio Canibal Tab

19 views 1 this week
no commentswrite comment
1 2 3 4 5
3 more votes to show rating
add to favorites
launch autoscroll
font size
0
reset
how to read this tab
guitar tuner
×
Best way to learn
"Territorio Canibal"
Autoscroll
slow
fast
+/-
esc
set tempo
stop
Bueno me llamo Tomas Campitelli y les dejo una transcripción
de este tema del mas grande!

INTRO:A5-A#5

    A5            A#5

E|--------|   E|--------|
B|---10---|   B|---11---|
G|---9----|   G|---10---|
D|---7----|   D|---8----|
A|--------|   A|--------|
E|--------|   E|--------|

A5-A#5
Cuerpos
estoy rodeado de cuerpos
por todos lados hay cuerpos
es una invasión
Cuerpos
millones de cuerpos
enjambres voraces
super población!

inter:F G F G F G

A5-A#5
Cuerpos
que no sienten nada
que vagan perdidos
sedientos de amor

C      G        Dm
Nuevos envases de competición
F
bajo el neón
          Am
lucen prefectos
C      G        Dm
raras especies para tu colección
F                 Ddim
son un montón de ofertas!

INTRO

E|-----------------------------------------|
B|-----------------------------------------|
G|--s5~--s7--s8--s10--s12--s10s12s10--8~---|
D|-----------------------------------------|
A|-----------------------------------------|
E|-----------------------------------------|

A5-A#5
Cuerpos
mercado de cuerpos
chatarra de cuerpos
en liquidación
Cuerpos
que someten a cuerpos
para ser consumidos
en el banquete final

inter:F G F G F G

C      G     Dm
tal vez yo sea uno mas
F
solo un cuerpo mas
Ddim
en esta feria?

INTRO X4

E|--------------------------------|
B|--------------------------------|
G|--------------------------------|
D|---7----------------------------|
A|--------7---8---7---------------|
E|-----8-------------5~-----------|


s (slide)
~ (vibrato)
Suggest correction
Give kudos to tab author, rate the tab!
1 2 3 4 5
comments
print report bad tab
guest
You may want to rate the tab now too:
select rating
Wanna post a correction for this tab? Suggest correction