Oops, an error
Loading. Please wait.

Tu Sombra Golondrina Tab

51 views 1 this week
no commentswrite comment
1 2 3 4 5
3 more votes to show rating
add to favorites
launch autoscroll
font size
0
reset
how to read this tab
guitar tuner
×
Best way to learn
"Tu Sombra Golondrina"
Autoscroll
slow
fast
+/-
esc
set tempo
stop
Intro:
se hace con dos o tres guitarras acústicas, es un juego con el acorde RE...
Yo les dejo maso la idea principal y ustedes luego
escuchan bien el tema e improvisan o arreglan a gusto, pero
creo que suena bastante bien igual, la idea del tema está.

Mientras una guitarra hace este riff, la otra juega con variaciones en RE y RE2
(RE2 se hace dejando la 1ra cuerda -MI- al aire):e|-0-
                                                 b|-3-
                                                 g|-2-
  Riff 1                                         d|-0-
e|----------------------|-2-2-----0------|
b|----------------------|------1-----3~~-|
g|-0h2-2---0----4--0--2-|----------------|
d|------------4---------|----------------|
a|----------------------|----------------|
e|----------------------|----------------|

RE (con riff 1)
Salí con mis ojos chinos
Agujereado hasta los pies

DO9            RE               DO9: e|-0-
MI sombra me AbanDOnó                b|-3-
DO9             RE                   g|-0-
Se fue por la pared...               d|-2-
                                     a|-3-
RE (con riff 1)                      e|---
Y me dijo adiós.

SIm   LA#   (SI hacen los acordes dejando la 1ra cuerda -MI-
Uuuuuuhhhh...                            al aire suena mejor)
SIm   LA#  LA
Uuuuuuhhhh...

RE (con riff 1)
Fue a la plaza del mercado

DO9                 RE
Se perdió en la multitud
DO9           RE
Y me dijo adiós.
RE (con riff 1)
Uh, uh, uh...

LA
Con una bandada de palomas escapó
Sombra golondrina en el juego del amor.

RE (con riff 1)
Uh, uh, uh...

Puente:
 |PARTE 1    x4               |PARTE 2   x2                |
 | SI5          LA#5          | RE5      LA#5              |
e|----------------------------|----------------------------|
b|----------------------------|---------------------6~-----|
g|--------4---------------5~--|-------7--------------------|
d|-----------4--3--0---3------|-------------8-----8--------|
a|-2-2-2----------------------|-5-5-5----5-----5-----------|
e|----------------------------|----------------------------|

(y luego repute la PARTE 1 x2)|

LA (con riff 2)
Va mi sombra por las calles buscando calor
Anda y anda confundida
Creyendo ser yo.

  Riff 2
e|----------------------------|------------|
b|----------------------------|------------|
g|-0h2-2-2--0--2/4--0--2/4--0-|-----0h2----|
d|----------------------------|-0h2----0h2-|
a|----------------------------|------------|
e|----------------------------|------------|

RE (con riff 1)
Uh, uh, uh...

SIm                    LA# (acuérdense de dejar que suene la 1ra al aire)
Sombra, sombra ¿dónde estás?
SIm                   LA#   LA
Sombra, sombra ¿donde vas?

Final
   RE                      SOL      LA     RE
e|----------------------|--7-7-7-7---9---|-2-|
b|----------------------|--8-8-8-8---10--|-3-|
g|-0h2-2---0----4--0--2-|--7-7-7-7---9---|-2-|
d|------------4---------|----------------|-0-|
a|----------------------|----------------|-0-|
e|----------------------|----------------|---|

Bueno gente, esto suena bastante bien, está bueno tocarlo
con dos acústicas y una electrica
con distorsión... a mi gusto uno de los mejores del ultimo
cd del flaco... NOS VEMOS EN EL COSQUÍN '14 FLAQUITO QUERIDO!!!!
Saludos y aguante la buena música!
Alexis Leandro :)
Suggest correction
Give kudos to tab author, rate the tab!
1 2 3 4 5
comments
print report bad tab
guest
You may want to rate the tab now too:
select rating
Wanna post a correction for this tab? Suggest correction