Oops, an error
Loading. Please wait.

Anarchy solo tab

version 1
version 1

Solo

Whole song

Interactive

by Skazi
2,066 views 1 this week
no commentswrite comment
1 2 3 4 5
3 more votes to show rating
add to favorites
×
Save as Personal and add changes to this tab that will be seen only by you. Learn more ›
×
You can save this tab as Personal to edit and correct it or add notes. All changes will be seen only by you. Learn more »
launch autoscroll
font size
0
reset
how to read this tab
guitar tuner
edit
Autoscroll
slow
fast
+/-
esc
set tempo
stop
Author
Difficulty
Anyone who ever tried to tab skazi can notice he's using chords.
in Anarchy he got 2 guitar solos, one in the start, and one in the end.

the starting one is:

e|---------------------------------------------|
B|---------------------------------------------|
G|---------------------------------------------|
D|--------10--------10--------10--6-6-6--3-3-3-|
A|--------10--------10--------10--6-6-6--3-3-3-|
E|888888888-888888888-888888888---4-4-4--1-1-1-|

            (A.H)              (A.H)             (A.H)
e|-----------------------------------------------------------------------|
B|-----------------------------------------------------------------------|
G|-----------------------------------------------------------------------|
D|-----------------10----------------10-----------------10--6-6-6--3-3-3-|
A|------------10-----------------10----------------10-------6-6-6--3-3-3-|
E|888888888-----------888888888---------888888888-----------4-4-4--1-1-1-|

            (   A.H  )         (   A.H  )           (   A.H  )
e|--------------------------------------------------------------------------|
B|--------------------------------------------------------------------------|
G|--------------------------------------------------------------------------|
D|-----------------10----------------10--------------------10--6-6-6--3-3-3-|
A|------------10-----------------10-------------------10-------6-6-6--3-3-3-|
E|888888888------8----888888888-----8------888888888----8------4-4-4--1-1-1-|

            (   A.H  )         (   A.H  )           (   A.H  )
e|--------------------------------------------------------------------------|
B|--------------------------------------------------------------------------|
G|--------------------------------------------------------------------------|
D|-----------------10----------------10--------------------10--6-6-6--3-3-3-|
A|------------10-----------------10-------------------10-------6-6-6--3-3-3-|
E|888888888------8----888888888-----8------888888888----8------4-4-4--1-1-1-|

now, in the end there is the ending solo:
it starts like this

e|------------------------------------|
B|------------------------------------|
G|------------------------------------|
D|------------------------------------|
A|------------------------------------|
E|888888888888888888888888888888888888

then quiet, then you hear a sort of 1,2,3,4 with drums and then the actual solo begins:

            (   A.H  )         (   A.H  )           (   A.H  )
e|--------------------------------------------------------------------------|
B|--------------------------------------------------------------------------|
G|--------------------------------------------------------------------------|
D|-----------------10----------------10--------------------10--6-6-6--3-3-3-|
A|------------10-----------------10-------------------10-------6-6-6--3-3-3-|
E|888888888------8----888888888-----8------888888888----8------4-4-4--1-1-1-|
                            |
                            |
                           \_/
                           X5


            (   A.H  )         (   A.H  )           (        A.H.       )
e|-----------------------------------------------------------------------|
B|-----------------------------------------------------------------------|
G|-----------------------------------------------------------------------|
D|-----------------10----------------10--------------------10------------|
A|------------10-----------------10-------------------10--------------10-|
E|888888888------8----888888888-----8------888888888----8----------------|

            (   A.H  )         (   A.H  )           (   A.H  )
e|--------------------------------------------------------------------------|
B|--------------------------------------------------------------------------|
G|--------------------------------------------------------------------------|
D|-----------------10----------------10--------------------10--6-6-6--3-3-3-|
A|------------10-----------------10-------------------10-------6-6-6--3-3-3-|
E|888888888------8----888888888-----8------888888888----8------4-4-4--1-1-1-|

            (   A.H  )         (   A.H  )           (   A.H  )       (A.H.)
e|-------------------------------------------------------------------------|
B|-------------------------------------------------------------------------|
G|-------------------------------------------------------------------------|
D|-----------------10----------------10--------------------10--------------|
A|------------10-----------------10-------------------10---------------10--|
E|888888888------8----888888888-----8------888888888----8-------888888-----|

            (   A.H  )         (   A.H  )           (   A.H  )
e|--------------------------------------------------------------------------|
B|--------------------------------------------------------------------------|
G|--------------------------------------------------------------------------|
D|-----------------10----------------10--------------------10--6-6-6--3-3-3-|
A|------------10-----------------10-------------------10-------6-6-6--3-3-3-|
E|888888888------8----888888888-----8------888888888----8------4-4-4--1-1-1-|

            (   A.H  )         (   A.H  )           (   A.H  )
e|--------------------------------------------------------------------------|
B|--------------------------------------------------------------------------|
G|--------------------------------------------------------------------------|
D|-----------------10----------------10--------------------10--6-6-6--3-3-3-|
A|------------10-----------------10-------------------10-------6-6-6--3-3-3-|
E|888888888------8----888888888-----8------888888888----8------4-4-4--1-1-1-|

and in the end it ends like this

D|6-6-6--3-3-3-|
A|6-6-6--3-3-3-|
E|4-4-4--1-1-1-|
Suggest correction
Creating personal tab
Creating personal tab
You can edit any tab online and save it as your Personal.

You can edit, replace or remove any tab part or add personal notes – all changes will be seen only by you.

Personal tabs can be accessed anytime from any device, even offline.
Learn more »
Give kudos to tab author, rate the tab!
1 2 3 4 5
comments
print report bad tab
guest
You may want to rate the tab now too:
select rating
Wanna post a correction for this tab? Suggest correction