Oops, an error
Loading. Please wait.

Fun tab

by Skegss
1,642 views 42 this week
no commentswrite comment
1 2 3 4 5
x 5
add to favorites
×
Save as Personal and add changes to this tab that will be seen only by you. Learn more ›
×
You can save this tab as Personal to edit and correct it or add notes. All changes will be seen only by you. Learn more »
launch autoscroll
font size
0
reset
how to read this tab
guitar tuner
edit
Autoscroll
slow
fast
+/-
esc
set tempo
stop
[Intro]

e|-----------------------|-----------------------|-----------------------|-------------------------------|
B|-----------------------|-----------------------|-----------------------|-------------------------------|
G|-----------------------|-----------------------|---------------8--8--9-|-----------------9---11--9---9-|
D|---------------8--8--9-|---------------8--8--9-|-9--9--11--11--9--9--9-|-11--11--11--11--11--11--11--11|
A|-9--9--11--11--9--9--9-|-9--9--11--11--9--9--9-|-7--7--7---7---7--7--7-|-9---9---9---9---9---9---9---9-|
E|-7--7--7---7---7--7--7-|-7--7--7---7---7--7--7-|-----------------------|-------------------------------| x1


[Verse]

e|-----------------------|-----------------------|-----------------------|-------------------------------|
B|-----------------------|-----------------------|-----------------------|-------------------------------|
G|-----------------------|-----------------------|---------------8--8--9-|-----------------9---11--9---9-|
D|---------------8--8--9-|---------------8--8--9-|-9--9--11--11--9--9--9-|-11--11--11--11--11--11--11--11|
A|-9--9--11--11--9--9--9-|-9--9--11--11--9--9--9-|-7--7--7---7---7--7--7-|-9---9---9---9---9---9---9---9-|
E|-7--7--7---7---7--7--7-|-7--7--7---7---7--7--7-|-----------------------|-------------------------------| x4


[Bridge]

e|-------------------------|----------------------------------|
B|-------------------------|----------------------------------|
G|-9--9--9--9--9--9-9--9-9-|----------------------------------|
D|-9--9--9--9--9--9-9--9-9-|-11--11--11--11--11--11-11--11-11-|
A|-7--7--7--7--7--7-7--7-7-|-9---9---9---9---9---9--9---9--9--|
E|-------------------------|----------------------------------|x4


[Chorusy thing] ("With youuuuuu")

e|-----------------------|-----------------------|-----------------------|-------------------------------|
B|-----------------------|-----------------------|-----------------------|-------------------------------|
G|-----------------------|-----------------------|---------------8--8--9-|-----------------9---11--9---9-|
D|---------------8--8--9-|---------------8--8--9-|-9--9--11--11--9--9--9-|-11--11--11--11--11--11--11--11|
A|-9--9--11--11--9--9--9-|-9--9--11--11--9--9--9-|-7--7--7---7---7--7--7-|-9---9---9---9---9---9---9---9-|
E|-7--7--7---7---7--7--7-|-7--7--7---7---7--7--7-|-----------------------|-------------------------------|

The song mostly repeats itself, as you can see the intro, verse chorusy thing and stuff are all exactly the
same. The only modulation is at the bridge bit where its just the E and F# chord, and at the end of the song
where it is the E, F# and then B chord to finish.

            
            
Suggest correction
Creating personal tab
Creating personal tab
You can edit any tab online and save it as your Personal.

You can edit, replace or remove any tab part or add personal notes – all changes will be seen only by you.

Personal tabs can be accessed anytime from any device, even offline.
Learn more »
comments
print report bad tab
guest
You may want to rate the tab now too:
select rating
Wanna post a correction for this tab? Suggest correction